A Rebuilding Year

Chords

01234567891011121314151617181920212223
E
B
G
D
A
E
B
0 1 2 3 4 5 6 7 8 9 10 11 12 13 14 15 16 17 18 19 20 21 22 23
(/) Slide Up  (\) Slide Down  (h) Hammer On  (p) Pull Off  (b) Bend (r) Release (v) Vibrato

Part A:

E|-----------------------------------------------------------------------------------------------------------------------------
B|---------------------------------------------------------------0-----0-------0-------0-----0-------0-----0h1-----0-----------
G|-----0-------0-------0-------0-----0-------0-------0-----0------------------------------0-----0h2-----0----------------------
D|--------------------------------0-----0h2-----2h4-----5-----0-----0-----0h2-----2h4------------------------------------------
A|----------------0h2-----2h3---------------------------------3-----3-----3-------3-------3-----3-------3-------3--------------
E|--3-----3h5-----3-------3-------3-----3-------3-------3----------------------------------------------------------------------

Part B:

E|--------------------------------------------------------------------------------
B|-----0h1-----0-------------------0-------------------------------------0--------
G|-------------0-----0h2-----0-----------0-----0-------------------0-----0-----0--
D|---------------------------------------------------4-----0h2--------------------
A|------------------------------------------2-----2-----3-------3-----3-----3-----
E|--3-------3-----2-------2-----0-----0-------------------------------------------



E|------------------------------------------------------------------------------------------------------
B|-----0h1-----0-------------------0-------------------------------------0h1-----0-------------------0--
G|-------------0-----0h2-----0-----------0-----0-------------------0---------------------------0--------
D|---------------------------------------------------4-----0h2-------------------------0h2--------------
A|------------------------------------------2-----2-----3-------3-----3-------3-----3-------3-----3-----
E|--3-------3-----2-------2-----0-----0-----------------------------------------------------------------

Part C:

E|------------------------------------------------------------------------------------------------------
B|-----0-----0-----0-----0-----0-----0-----0-----0-----0h1-----1-----1-----1-----0h1-----1-----1-----1--
G|-----0-----0-----0-----0-----0-----0-----0-----0-----0-------0-----0-----0-----0-------0-----0-----0--
D|--2-----2-----1-----1-----0-----2--0------------------------------------------------------------------
A|--------------------------------------4-----0-----3-------3-----3-----3-----3-------3-----3-----------
E|------------------------------------------------------------------------------------------------2-----



E|---------------------------------------------------------------------------------------------------
B|-----0-----0-----0-----0-----0-----0-----0-----0-----0h1-----1-----1-----0h1-----1-----1-----1-----
G|-----0-----0-----0-----0-----0-----0-----0-----0-----0-------0-----0-----0-------0-----0-----0-----
D|--2-----2-----1-----1-----0-----2--0---------------------------------------------------------------
A|--------------------------------------4-----0-----3-------3-----3-----3-------3-----3-----3--------
E|------------------------------------------------------------------------------------------------2--

Part D:

E|---------------------------------------0--------------------0--
B|-----0h1-----0-------------------------0--------------------0--
G|-------------0-----0h2-----0-----------0--------0--0--0-----0--
D|---------------------------------------2--------0--0--0-----2--
A|---------------------------------------2--------2--2--2-----2--
E|--3-------3-----2-------2-----0-----------------3--3--3--------

							http://www.guitartabcreator.com
Tab Notes
Play part A twice, then part B, then part A again, then part C, then play just the first line of part B three times, then part D.
Instruments
{"strings":[[[".",".",".",".",".",".",".",".",".",".",".",".",".",".",".",".",".",".",".",".",".",".",".",".",".",".",".",".",".",".",".",".",".",".",".",".",".",".",".",".",".",".",".",".",".",".",".",".",".",".",".",".","."],[".",".",".",".",".",".",".",".",".",".",".",".",".",".",".",".",".",".",".",".",".",".",".",".",".",".",".",0,".",0,".",".",".",0,".",".",".",0,".",0,".",".",".",0,".",0,"h",1,".",0,".",".","."],[".",0,".",".",".",0,".",".",".",0,".",".",".",0,".",0,".",".",".",0,".",".",".",0,".",0,".",".",".",".",".",".",".",".",".",".",".",".",0,".",0,"h",2,".",0,".",".",".",".",".",".",".","."],[".",".",".",".",".",".",".",".",".",".",".",".",".",".",0,".",0,"h",2,".",2,"h",4,".",5,".",0,".",0,".",0,"h",2,".",2,"h",4,".",".",".",".",".",".",".",".",".",".",".",".",".",".",".","."],[".",".",".",".",".",".",0,"h",2,".",2,"h",3,".",".",".",".",".",".",".",".",".",".",".",".",".",3,".",3,".",3,".",".",".",3,".",".",".",3,".",3,".",".",".",3,".",".",".",3,".",".",".","."],[3,".",3,"h",5,".",3,".",".",".",3,".",".",".",3,".",3,".",".",".",3,".",".",".",3,".",".",".",".",".",".",".",".",".",".",".",".",".",".",".",".",".",".",".",".",".",".",".",".",".",".",".","."]],[[".",".",".",".",".",".",".",".",".",".",".",".",".",".",".",".",".",".",".",".",".",".",".",".",".",".",".",".",".","."],[".",0,"h",1,".",0,".",".",".",".",".",".",".",0,".",".",".",".",".",".",".",".",".",".",".",".",".",0,".","."],[".",".",".",".",".",0,".",0,"h",2,".",0,".",".",".",0,".",0,".",".",".",".",".",".",".",0,".",0,".",0],[".",".",".",".",".",".",".",".",".",".",".",".",".",".",".",".",".",".",".",4,".",0,"h",2,".",".",".",".",".","."],[".",".",".",".",".",".",".",".",".",".",".",".",".",".",".",".",2,".",2,".",3,".",".",".",3,".",3,".",3,"."],[3,".",".",".",3,".",2,".",".",".",2,".",0,".",0,".",".",".",".",".",".",".",".",".",".",".",".",".",".","."]],[[".",".",".",".",".",".",".",".",".",".",".",".",".",".",".",".",".",".",".",".",".",".",".",".",".",".",".",".",".",".",".",".",".",".",".",".",".",".",".","."],[".",0,"h",1,".",0,".",".",".",".",".",".",".",0,".",".",".",".",".",".",".",".",".",".",".",".",".",0,"h",1,".",0,".",".",".",".",".",".",".",0],[".",".",".",".",".",0,".",0,"h",2,".",0,".",".",".",0,".",0,".",".",".",".",".",".",".",0,".",".",".",".",".",".",".",".",".",".",".",0,".","."],[".",".",".",".",".",".",".",".",".",".",".",".",".",".",".",".",".",".",".",4,".",0,"h",2,".",".",".",".",".",".",".",".",".",0,"h",2,".",".",".","."],[".",".",".",".",".",".",".",".",".",".",".",".",".",".",".",".",2,".",2,".",3,".",".",".",3,".",3,".",".",".",3,".",3,".",".",".",3,".",3,"."],[3,".",".",".",3,".",2,".",".",".",2,".",0,".",0,".",".",".",".",".",".",".",".",".",".",".",".",".",".",".",".",".",".",".",".",".",".",".",".","."]],[[".",".","_",".",".",".","_",".",".",".",".",".",".",".",".",".",".",".",".",".",".",".",".",".",".",".",".",".",".",".",".",".",".",".",".","."],[".",0,"_",0,".",0,"_",0,".",0,".",0,".",0,".",0,".",0,"h",1,".",1,".",1,".",1,".",0,"h",1,".",1,".",1,".",1],[".",0,"_",0,".",0,"_",0,".",0,".",0,".",0,".",0,".",0,".",".",".",0,".",0,".",0,".",0,".",".",".",0,".",0,".",0],[2,".",2,".",1,".",1,".",0,".",2,0,".",".",".",".",".",".",".",".",".",".",".",".",".",".",".",".",".",".",".",".",".",".",".","."],[".",".","_",".",".",".","_",".",".",".",".",".",4,".",0,".",3,".",".",".",3,".",3,".",3,".",3,".",".",".",3,".",3,".",".","."],[".",".","_",".",".",".","_",".",".",".",".",".",".",".",".",".",".",".",".",".",".",".",".",".",".",".",".",".",".",".",".",".",".",".",2,"."]],[[".",".",".",".",".",".",".",".",".",".",".",".",".",".",".",".",".",".",".",".",".",".",".",".",".",".",".",".",".",".",".",".",".",".","."],[".",0,".",0,".",0,".",0,".",0,".",0,".",0,".",0,".",0,"h",1,".",1,".",1,".",0,"h",1,".",1,".",1,".",1,"."],[".",0,".",0,".",0,".",0,".",0,".",0,".",0,".",0,".",0,".",".",".",0,".",0,".",0,".",".",".",0,".",0,".",0,"."],[2,".",2,".",1,".",1,".",0,".",2,0,".",".",".",".",".",".",".",".",".",".",".",".",".",".",".",".",".",".",".",".",".",".","."],[".",".",".",".",".",".",".",".",".",".",".",".",4,".",0,".",3,".",".",".",3,".",3,".",3,".",".",".",3,".",3,".",3,".","."],[".",".",".",".",".",".",".",".",".",".",".",".",".",".",".",".",".",".",".",".",".",".",".",".",".",".",".",".",".",".",".",".",".",".",2]],[[".",".",".",".",".",".",".",".",".",".",".",".",".","_",".",0,"_",".",".",".",".","_",0],[".",0,"h",1,".",0,".",".",".",".",".",".",".","_",".",0,"_",".",".",".",".","_",0],[".",".",".",".",".",0,".",0,"h",2,".",0,".","_",".",0,"_",".",0,0,0,"_",0],[".",".",".",".",".",".",".",".",".",".",".",".",".","_",".",2,"_",".",0,0,0,"_",2],[".",".",".",".",".",".",".",".",".",".",".",".",".","_",".",2,"_",".",2,2,2,"_",2],[3,".",".",".",3,".",2,".",".",".",2,".",0,"_",".",".","_",".",3,3,3,"_","."]]],"numberofstrings":6,"notes":["E","B","G","D","A","E","B"],"capo":0,"stringnotes":["E4","B3","G3","D3","A2","E2"],"comments":["Part A:","Part B:","","Part C:","","Part D:"],"timing":[["W","W","W",null,"W","W","W","W","W","W","W",null,"W","W","W","W","W",null,"W","W","W",null,"W","W","W","W","W","W","W","W","W",null,"W","W","W",null,"W","W","W","W","W",null,"W","W","W","W",null,"W","W","W"],["W","W",null,"W","W","W","W","W",null,"W","W","W","W","W","W","W","W","W","W","W","W",null,"W","W","W","W","W","W","W","W","W","W","W","W","W","W","W","W","W",null,"W","W","W","W","W","W","W","W","W","W","W"],["W","W",null,"W","W","W","W","W",null,"W","W","W","W","W","W","W","W","W","W","W","W","W",null,"W","W","W","W","W",null,"W","W","W","W","W",null,"W","W","W","W","W"],["W","W",null,"W","W","W",null,"W","W","W","W","W","W","W","W","W","W","W",null,"W","W","W","W","W","W","W","W","W",null,"W","W","W","W","W","W","W"],["W","W","W","W","W","W","W","W","W","W","W","W","W","W","W","W","W","W",null,"W","W","W","W","W","W","W",null,"W","W","W","W","W","W","W","W"],["W","W",null,"W","W","W","W","W",null,"W","W","W","W",null,"W",null,"W","W","W",null,"W","W"]],"timingvisible":false,"tabcounter":23,"stave":5,"totalstaves":6,"instrument":"6guitar","selectedtuning":"6_standard","version":"13"}

Member for

41 minutes 12 seconds
Submitted by worryfornaught on Wed, 2020-07-29 18:58