Sound will begin in 5 seconds

khruangbin august twelve

01234567891011121314151617181920212223
E
B
G
D
A
E
B
0 1 2 3 4 5 6 7 8 9 10 11 12 13 14 15 16 17 18 19 20 21 22 23
Song Science #1: How Pros Use 6 Chords to Write Hit Songs
(/) Slide Up  (\) Slide Down  (h) Hammer On  (p) Pull Off  (b) Bend (r) Release (v) Vibrato

Stave 1:

E|--12--10---------12--10---------12--10----------
B|----------12-------------12-------------12--12--
G|------------------------------------------------
D|------------------------------------------------
A|------------------------------------------------
E|------------------------------------------------

Stave 2:

E|------------------------------------------------
B|--12--10---------12--10---------12--10----------
G|----------11-------------11-------------11--11--
D|------------------------------------------------
A|------------------------------------------------
E|------------------------------------------------

Stave 3:

E|----------------------------------------------------------------------
B|----------------------------------------------------7h10p7-----7--10--
G|--9/7--------9--7--------9--7-----------7-----7--9--------------------
D|-------9-----------9-----------9-----9--------------------------------
A|----------------------------------------------------------------------
E|----------------------------------------------------------------------

Stave 4:

E|--12--10---------12--10---------12--10----------
B|----------12-------------12-------------12--12--
G|------------------------------------------------
D|------------------------------------------------
A|------------------------------------------------
E|------------------------------------------------

Stave 5:

E|------------------------------------------------
B|--12--10---------12--10---------12--10----------
G|----------11-------------11-------------11--11--
D|------------------------------------------------
A|------------------------------------------------
E|------------------------------------------------

Stave 6:

E|-------------------------------------------------------------------
B|-------------------------------------------------------------------
G|--9/7--------9--7--------9--7-----------7-----6--6--6--------------
D|-------9-----------9-----------9-----9-----------------9--7--7--5--
A|-------------------------------------------------------------------
E|-------------------------------------------------------------------

Stave 7:

E|------------------------------------------------------
B|------------------------------------------------------
G|--------------------4--6-----------9--7h9p7-----9--9--
D|--4-----4--4-----7--------7--5--7---------------------
A|------------------------------------------------------
E|------------------------------------------------------

Stave 8:

E|--------------------------------------------------
B|--------------------------------------------------
G|--7--7--7-----6--6--6-----4--4--4-----------------
D|--------------------------------------7--7--7--5--
A|--------------------------------------------------
E|--------------------------------------------------

Stave 9:

E|------------------------------------------------------
B|------------------------------------------------------
G|--------------------4--6-----7--5--7--9--7h9p7--------
D|--4-----4--4-----7------------------------------9--9--
A|------------------------------------------------------
E|------------------------------------------------------

Stave 10:

E|------------------------------------------------------------
B|----------10-----------------------10-----------------------
G|--7\9h11------11--11p9-----7\9h11------11--11p9-----7\9\11--
D|------------------------------------------------------------
A|------------------------------------------------------------
E|------------------------------------------------------------

Stave 11:

E|--------------------------------------------
B|--10--12--14-----10-------------------------
G|------------------------11-----9h11p9/7-----
D|-----------------------------------------9--
A|--------------------------------------------
E|--------------------------------------------

Stave 12:

E|-------------------------------------------------------
B|-----------------7--10--7h10p7---------7-----7--10--7--
G|-----------7--9-----------------9/7\9------------------
D|--7--7--9----------------------------------------------
A|-------------------------------------------------------
E|-------------------------------------------------------

Stave 13:

E|--12--10---------12--10---------12--10----------
B|----------12-------------12-------------12--12--
G|------------------------------------------------
D|------------------------------------------------
A|------------------------------------------------
E|------------------------------------------------

Stave 14:

E|------------------------------------------------
B|--12--10---------12--10---------12--10----------
G|----------11-------------11-------------11--11--
D|------------------------------------------------
A|------------------------------------------------
E|------------------------------------------------

Stave 15:

E|----------------------------------
B|---------------------------10-----
G|--9/7-------------7--9\11------9--
D|-------9-----7h9------------------
A|----------------------------------
E|----------------------------------

Stave 16:

E|-----------------------------------------------------------------
B|--------------------------------------------10------10-----------
G|--7-----7--9h11--11p9h11--11p9h11--11p9h11------12------11p9--9--
D|-----9-----------------------------------------------------------
A|-----------------------------------------------------------------
E|-----------------------------------------------------------------

Stave 17:

E|------------------------------------------------------------------
B|------------------------------------------------------------------
G|--7-----7--7\9--11--9/7--7--7--9--9-----7--9--7--7--9--9h11--9/7--
D|-----9------------------------------------------------------------
A|------------------------------------------------------------------
E|------------------------------------------------------------------

Stave 18:

E|--------------------------------
B|--------------------------------
G|--------------------------7--9--
D|--9--7--7--9--9--7--7--9--------
A|--------------------------------
E|--------------------------------

Stave 19:

E|----------------------------------------------
B|----------------------------------------------
G|--11--11--9--11--11--9--11--11--9--11--11--9--
D|----------------------------------------------
A|----------------------------------------------
E|----------------------------------------------

Stave 20:

E|------------------10h12--10----------------
B|--10h12----------------------12p10--10h12--
G|---------11p9--9---------------------------
D|-------------------------------------------
A|-------------------------------------------
E|-------------------------------------------

Stave 21:

E|------------------------------
B|-----------------10-----------
G|--------7--9\11------9--9--9--
D|--7--9------------------------
A|------------------------------
E|------------------------------

Stave 22:

E|-------------------------------------------
B|-------------------------------------------
G|--7--7--7/6--6--6--6-----------------------
D|----------------------9--9--9--7--7--7--7--
A|-------------------------------------------
E|-------------------------------------------

Stave 23:

E|--
B|--
G|--
D|--
A|--
E|--

http://www.guitartabcreator.com
Guitar Tab Creator is intended to store guitar tab created through the tool. It currently does not support in-line text editing. Any text you place in here will be lost. If you need to comment on your tab, please use the "Tab Notes" section located below.