Sound will begin in 5 seconds

At The Cross

01234567891011121314151617181920212223
E
B
G
D
A
E
B
0 1 2 3 4 5 6 7 8 9 10 11 12 13 14 15 16 17 18 19 20 21 22 23
Song Science #1: How Pros Use 6 Chords to Write Hit Songs
(/) Slide Up  (\) Slide Down  (h) Hammer On  (p) Pull Off  (b) Bend (r) Release (v) Vibrato

Stave 1:

E|-----------------------------------------------------------------------------------------
B|--8--8--8--8--8--10--10--12--12--12--12--12----------------------------------------------
G|---------------------------------------------7--7--9--9--9--9--9--11--11--9--9--9--9--9--
D|-----------------------------------------------------------------------------------------
A|-----------------------------------------------------------------------------------------
E|-----------------------------------------------------------------------------------------

Stave 2:

E|--10--10------------------10--10-----------------10--10------------------10--10--------------
B|----------10--10--10--10----------8--8--8--8--8----------10--10--10--10----------8--8--8--8--
G|---------------------------------------------------------------------------------------------
D|---------------------------------------------------------------------------------------------
A|---------------------------------------------------------------------------------------------
E|---------------------------------------------------------------------------------------------

Stave 3:

E|----------3--------3----------7--------7----------5--------5----------8--------8--
B|----------------------------------------------------------------------------------
G|----5--5-----5--5-------7--7-----7--7-------7--7-----7--7-------9--9-----9--9-----
D|----------------------------------------------------------------------------------
A|----------------------------------------------------------------------------------
E|----------------------------------------------------------------------------------

Stave 4:

E|----------------------------------------------------------------------------------------------------
B|--8--8--8--8--8--8--8--7--------------------8--7--------------------10--10--10--10--10--10--15--15--
G|--------------------------9--9--9--9--9--9--------7--7--7--7--7--7----------------------------------
D|----------------------------------------------------------------------------------------------------
A|----------------------------------------------------------------------------------------------------
E|----------------------------------------------------------------------------------------------------

Stave 5:

E|----15--15--15--15--15----15--15--14--14--12--12--10--10--------------------------
B|----------------------------------------------------------12--12--12--12--12--12--
G|----------------------------------------------------------------------------------
D|----------------------------------------------------------------------------------
A|----------------------------------------------------------------------------------
E|----------------------------------------------------------------------------------

Stave 6:

E|----15--15--14--14--12--12--10--10------------------------------------------------------
B|------------------------------------12--12--12--12--12--12--15--15----------------------
G|--------------------------------------------------------------------14--14--14--14--14--
D|----------------------------------------------------------------------------------------
A|----------------------------------------------------------------------------------------
E|----------------------------------------------------------------------------------------

Stave 7:

E|-----------------------------------------------------------------------
B|--8--8--8--15--15--12--12--12--15--15--10--10--10--15--15--13--13--13--
G|-----------------------------------------------------------------------
D|-----------------------------------------------------------------------
A|-----------------------------------------------------------------------
E|-----------------------------------------------------------------------

Stave 8:

E|-----------------------------------------------------------------------------------------
B|--8--8--8--15--15--12--12--12--15--15--10--10--10--15--15--13--13--13----15--15--10--10--
G|-----------------------------------------------------------------------------------------
D|-----------------------------------------------------------------------------------------
A|-----------------------------------------------------------------------------------------
E|-----------------------------------------------------------------------------------------

http://www.guitartabcreator.com
Guitar Tab Creator is intended to store guitar tab created through the tool. It currently does not support in-line text editing. Any text you place in here will be lost. If you need to comment on your tab, please use the "Tab Notes" section located below.