Bas: Treklanger Övningsexempel 2

01234567891011121314151617181920212223
E
B
G
D
A
E
B
0 1 2 3 4 5 6 7 8 9 10 11 12 13 14 15 16 17 18 19 20 21 22 23
(/) Slide Up  (\) Slide Down  (h) Hammer On  (p) Pull Off  (b) Bend (r) Release (v) Vibrato

Stave 1:

G|-----4--7-----------------------------
D|--5-----------2--5-----4--7-----------
A|-----------3--------5-----------2--5--
E|-----------------------------3--------

Stave 2:

G|-------------------------------------------
D|------------------------------------9--12--
A|-----2--5-----7--10------9--12--10---------
E|--3--------8---------10--------------------

Stave 3:

G|-----------------9--12------11--14-------------
D|------9--12--10---------12--------------9--12--
A|--10--------------------------------10---------
E|-----------------------------------------------

Stave 4:

G|--------------------------------------
D|-----------2-----5--4-----7--5--------
A|-----2--5-----3--------5--------5--2--
E|--3-----------------------------------

Stave 5:

G|--------------------------------------------------------------------------
D|-----------5-----------------5-----------------5-----------------5--------
A|-----2--5-----2--5-----2--5-----2--5-----5--------5--2-----5--------5--2--
E|--3-----------------3-----------------3-----3-----------3-----3-----------

							http://www.guitartabcreator.com
Chords

Instruments
{"strings":[[[".",4,7,".",".",".",".",".",".",".",".","."],[5,".",".",".",2,5,".",4,7,".",".","."],[".",".",".",3,".",".",5,".",".",".",2,5],[".",".",".",".",".",".",".",".",".",3,".","."]],[[".",".",".",".",".",".",".",".",".",".",".","."],[".",".",".",".",".",".",".",".",".",".",9,12],[".",2,5,".",7,10,".",9,12,10,".","."],[3,".",".",8,".",".",10,".",".",".",".","."]],[[".",".",".",".",9,12,".",11,14,".",".","."],[".",9,12,10,".",".",12,".",".",".",9,12],[10,".",".",".",".",".",".",".",".",10,".","."],[".",".",".",".",".",".",".",".",".",".",".","."]],[[".",".",".",".",".",".",".",".",".",".",".","."],[".",".",".",2,".",5,4,".",7,5,".","."],[".",2,5,".",3,".",".",5,".",".",5,2],[3,".",".",".",".",".",".",".",".",".",".","."]],[[".",".",".",".",".",".",".",".",".",".",".",".",".",".",".",".",".",".",".",".",".",".",".","."],[".",".",".",5,".",".",".",".",".",5,".",".",".",".",".",5,".",".",".",".",".",5,".","."],[".",2,5,".",2,5,".",2,5,".",2,5,".",5,".",".",5,2,".",5,".",".",5,2],[3,".",".",".",".",".",3,".",".",".",".",".",3,".",3,".",".",".",3,".",3,".",".","."]]],"numberofstrings":4,"notes":["G","D","A","E"],"capo":0,"stringnotes":["G2","D2","A1","E1"],"comments":["Stave 1:","Stave 2:","Stave 3:","Stave 4:","Stave 5:"],"timing":[["W","W","W","W","W","W","W","W","W","W","W","W"],["W","W","W","W","W","W","W","W","W","W","W","W"],["W","W","W","W","W","W","W","W","W","W","W","W"],["W","W","W","W","W","W","W","W","W","W","W","W"],["W","W","W","W","W","W","W","W","W","W","W","W","W","W","W","W","W","W","W","W","W","W","W","W"]],"timingvisible":false,"tabcounter":24,"stave":4,"totalstaves":5,"instrument":"4bass","selectedtuning":"4bass","version":"13"}

Member for

2 years 8 months
Submitted by Per Wockatz on Wed, 2020-11-25 03:26