Bas: Treklanger Övningsexempel 1

01234567891011121314151617181920212223
E
B
G
D
A
E
B
0 1 2 3 4 5 6 7 8 9 10 11 12 13 14 15 16 17 18 19 20 21 22 23
(/) Slide Up  (\) Slide Down  (h) Hammer On  (p) Pull Off  (b) Bend (r) Release (v) Vibrato

Stave 1:

G|--------------------------------------------------------------------------
D|-----------------------2--5-----2--5-----4--7-----4--7--------------4--7--
A|-----2--5-----2--5--3--------3--------5--------5-----------2--5--5--------
E|--3--------3--------------------------------------------3-----------------

Stave 2:

G|--------------------------------------
D|--------------2--5-----4--7-----------
A|-----2--5--3--------5-----------2--5--
E|--3--------------------------3--------

Stave 3:

G|--------------------------------4--7--
D|--------------2--5-----4--7--5--------
A|-----2--5--3--------5-----------------
E|--3-----------------------------------

							http://www.guitartabcreator.com
Chords

Instruments
{"strings":[[[".",".",".",".",".",".",".",".",".",".",".",".",".",".",".",".",".",".",".",".",".",".",".","."],[".",".",".",".",".",".",".",2,5,".",2,5,".",4,7,".",4,7,".",".",".",".",4,7],[".",2,5,".",2,5,3,".",".",3,".",".",5,".",".",5,".",".",".",2,5,5,".","."],[3,".",".",3,".",".",".",".",".",".",".",".",".",".",".",".",".",".",3,".",".",".",".","."]],[[".",".",".",".",".",".",".",".",".",".",".","."],[".",".",".",".",2,5,".",4,7,".",".","."],[".",2,5,3,".",".",5,".",".",".",2,5],[3,".",".",".",".",".",".",".",".",3,".","."]],[[".",".",".",".",".",".",".",".",".",".",4,7],[".",".",".",".",2,5,".",4,7,5,".","."],[".",2,5,3,".",".",5,".",".",".",".","."],[3,".",".",".",".",".",".",".",".",".",".","."]]],"numberofstrings":4,"notes":["G","D","A","E"],"capo":0,"stringnotes":["G2","D2","A1","E1"],"comments":["Stave 1:","Stave 2:","Stave 3:"],"timing":[["W","W","W","W","W","W","W","W","W","W","W","W","W","W","W","W","W","W","W","W","W","W","W","W"],["W","W","W","W","W","W","W","W","W","W","W","W"],["W","W","W","W","W","W","W","W","W","W","W","W"]],"timingvisible":false,"tabcounter":12,"stave":2,"totalstaves":3,"instrument":"4bass","selectedtuning":"4bass","version":"13"}

Member for

2 years 8 months
Submitted by Per Wockatz on Tue, 2020-11-24 23:04