Bas: Pentatonisk skala i E-moll uppdelat i "boxar"

Chords

01234567891011121314151617181920212223
E
B
G
D
A
E
B
0 1 2 3 4 5 6 7 8 9 10 11 12 13 14 15 16 17 18 19 20 21 22 23
(/) Slide Up  (\) Slide Down  (h) Hammer On  (p) Pull Off  (b) Bend (r) Release (v) Vibrato

Stave 1:

G|--------------------0--2--
D|--------------0--2--------
A|--------0--2--------------
E|--0--3--------------------

Stave 2:

G|--------------------2--4--
D|--------------2--5--------
A|--------2--5--------------
E|--3--5--------------------

Stave 3:

G|--------------------4--7--
D|--------------5--7--------
A|--------5--7--------------
E|--5--7--------------------

Stave 4:

G|----------------------7--9--
D|----------------7--9--------
A|---------7--10--------------
E|--7--10---------------------

Stave 5:

G|-------------------------9--12--
D|------------------9--12---------
A|----------10--12----------------
E|--10--12------------------------

Stave 6:

G|--------------------------12--14--
D|------------------12--14----------
A|----------12--14------------------
E|--12--15--------------------------

							http://www.guitartabcreator.com
Tab Notes
Öva varje box/position upp och ner i långsamt tempo. Fingersättning är valfri men tänk på så små och ekonomiska rörelser som möjligt.
Instruments
{"strings":[[[".",".",".",".",".",".",0,2],[".",".",".",".",0,2,".","."],[".",".",0,2,".",".",".","."],[0,3,".",".",".",".",".","."]],[[".",".",".",".",".",".",2,4],[".",".",".",".",2,5,".","."],[".",".",2,5,".",".",".","."],[3,5,".",".",".",".",".","."]],[[".",".",".",".",".",".",4,7],[".",".",".",".",5,7,".","."],[".",".",5,7,".",".",".","."],[5,7,".",".",".",".",".","."]],[[".",".",".",".",".",".",7,9],[".",".",".",".",7,9,".","."],[".",".",7,10,".",".",".","."],[7,10,".",".",".",".",".","."]],[[".",".",".",".",".",".",9,12],[".",".",".",".",9,12,".","."],[".",".",10,12,".",".",".","."],[10,12,".",".",".",".",".","."]],[[".",".",".",".",".",".",12,14],[".",".",".",".",12,14,".","."],[".",".",12,14,".",".",".","."],[12,15,".",".",".",".",".","."]]],"numberofstrings":4,"notes":["G","D","A","E"],"capo":0,"stringnotes":["G2","D2","A1","E1"],"comments":["Stave 1:","Stave 2:","Stave 3:","Stave 4:","Stave 5:","Stave 6:"],"timing":[["W","W","W","W","W","W","W","W"],["W","W","W","W","W","W","W","W"],["W","W","W","W","W","W","W","W"],["W","W","W","W","W","W","W","W"],["W","W","W","W","W","W","W","W"],["W","W","W","W","W","W","W","W"]],"timingvisible":false,"tabcounter":8,"stave":5,"totalstaves":6,"instrument":"4bass","selectedtuning":"4bass","version":"13"}

Member for

2 years 7 months
Submitted by Per Wockatz on Sun, 2020-10-25 02:44