Sound will begin in 5 seconds

Teus Olhos - Marcelo Camelo

Chords
01234567891011121314151617181920212223
E
B
G
D
A
E
B
0 1 2 3 4 5 6 7 8 9 10 11 12 13 14 15 16 17 18 19 20 21 22 23
Song Science #1: How Pros Use 6 Chords to Write Hit Songs
(/) Slide Up  (\) Slide Down  (h) Hammer On  (p) Pull Off  (b) Bend (r) Release (v) Vibrato

Stave 1:

E|-----0-----0----------------------------0-----0-------------------------------------------------
B|-----0-----0----------5--4--5--4--0-----0-----0----------5--4--5--4--0--2--------2-----2-----4--
G|-----1-----1----------------------------1-----1----------------------------2--------2-----------
D|------------------------------------------------------------------------------2-----------2--4--
A|--------------2--2/4-----------------------------2--2/4-----------------0-----------------------
E|--0-----4--0-------------------------0-----4----------------------------------------------------

Stave 2:

E|--0--2--0--2--0--4/7---------------------5/7--2h5--5--4--2--2-----0--2--0--2--0--3/5-------------5--
B|-------------------------------5--4--3v------------2--2--2--4--1--1--1--1--1------------------------
G|----------------------------4-------------------------------2---------------------------------------
D|-------------------------6--------------------------------------------------------------------3-----
A|----------------------7----------------------------0-----------0-------------------------0--3/4-----
E|--------------------------------------------------------------------------------------0-------------

Stave 3:

E|-----------------4-----------------------------2-----2-----2-----2-----2-----4-----4-----4-----4-----
B|-----------------2--5--5-----5-----5--0--------2-----2-----2-----2-----2-----5-----5-----5-----5-----
G|--------------------0--0-----0-----0--0-----------------------------------------------4--------------
D|--------------4-----------------------------------------2-----------------------6-----------------6--
A|--------0--2--------0-----0-----0-----------------4-----------------4-----4-----------------4--------
E|--0--2-----------------------------------0--2-----------------2--------------------------------------

Stave 4:

E|--4-----2--
B|--5-----2--
G|-----4-----
D|-----------
A|-----------
E|--------2--

http://www.guitartabcreator.com
Guitar Tab Creator is intended to store guitar tab created through the tool. It currently does not support in-line text editing. Any text you place in here will be lost. If you need to comment on your tab, please use the "Tab Notes" section located below.