Sound will begin in 5 seconds

Khiazma

01234567891011121314151617181920212223
E
B
G
D
A
E
B
0 1 2 3 4 5 6 7 8 9 10 11 12 13 14 15 16 17 18 19 20 21 22 23
Song Science #1: How Pros Use 6 Chords to Write Hit Songs
(/) Slide Up  (\) Slide Down  (h) Hammer On  (p) Pull Off  (b) Bend (r) Release (v) Vibrato

Stave 1:

G|------------------------------------------------------------------------------------------------------------------------------
D|------------------------------------------------------------------------------------------------------------------------------
A|--4--4--4\5--5--5--5--5-----4--4--4\5--5--5--5--5-----------------------------------------------------------------------------
D|-------------------------6-------------------------6--0--0--0--6--5--0--0--5--4--0--0--0--7--6--2--1--------------------------
B|---------------------------------------------------------------------------------------------------------1--1--1--1--1--1--1--

Stave 2:

G|------------10-------------------10------------------9-----------------9-----------------10--------------------10------------
D|--------10------10-----------10------10-----------9-----9-----------9-----9-----------8------8--------------8----------------
A|--8--8--------------8--8--8--------------8--7--7-----------7--7--7-----------7-----8------------8--------8-------------------
D|--------------------------------------------------------------------------------8------------------8--8------------10--8--7--
B|-----------------------------------------------------------------------------------------------------------------------------

Stave 3:

G|----------------------------------------------------------------------------------------------------------------------------------------------
D|----------------------------------------------------------------------------------------------------------------------------------------------
A|----------------------------------------------------------------------------------------------------------------------------------------------
D|--7--0--0--7--0--0--8--8--8--7--0--0--7--0--0--9--9--9--1--0--0--1--0--0--1--0--0--1\7--7--0--0--7--0--0--8--8--8--7--0--0--7--0--0--9--9--9--
B|----------------------------------------------------------------------------------------------------------------------------------------------

Stave 4:

G|-----------------------------------------------------------------------------------------------------
D|-----------------------------------------------------------------------------------------------------
A|--------------------------------------------------7--6--4--0--6--5--3--0--5--4--2--0--5--4--2--0--2--
D|--7--6--4--0--6--5--3--0--5--4--2--0--5--4--2--0-----------------------------------------------------
B|-----------------------------------------------------------------------------------------------------

Stave 5:

G|------------------
D|------------------
A|--2--2\3--3--3/2--
D|------------------
B|------------------

http://www.guitartabcreator.com
Guitar Tab Creator is intended to store guitar tab created through the tool. It currently does not support in-line text editing. Any text you place in here will be lost. If you need to comment on your tab, please use the "Tab Notes" section located below.