Sound will begin in 5 seconds

Sweet Dreams

01234567891011121314151617181920212223
E
B
G
D
A
E
B
0 1 2 3 4 5 6 7 8 9 10 11 12 13 14 15 16 17 18 19 20 21 22 23
Song Science #1: How Pros Use 6 Chords to Write Hit Songs
(/) Slide Up  (\) Slide Down  (h) Hammer On  (p) Pull Off  (b) Bend (r) Release (v) Vibrato

Stave 1:

E|--5--|--5-----------|-----|-----4--7--|--5--|--5-----------|--
B|-----|-----7--5--4--|--5--|--5--------|-----|-----7--4--5--|--
G|-----|--------------|-----|-----------|-----|--------------|--
D|-----|--------------|-----|-----------|-----|--------------|--
A|-----|--------------|-----|-----------|-----|--------------|--
E|-----|--------------|-----|-----------|-----|--------------|--

Stave 2:

E|-----4--5--5--5--5--|-----------|--------------|--------|--
B|--------------------|--7--3-----|--7--5--------|--------|--
G|--------------------|-----------|--------5-----|-----5--|--
D|--------------------|--------7--|-----------7--|--4-----|--
A|--------------------|-----------|--------------|--------|--
E|--------------------|-----------|--------------|--------|--

Stave 3:

E|--------5-----|--------------------|-----------|--------|--
B|--5--5-----7--|--3-----------------|-----------|--------|--
G|--------------|--------5--4--------|--4--------|--------|--
D|--------------|-----7--------5--5--|-----5--5--|--------|--
A|--------------|--------------------|-----------|--------|--
E|--------------|--------------------|-----------|--------|--

Stave 4:

E|--5--------5--|--4--------|--------|-----4--7--|--5-----5--|--
B|--------------|-----7--4--|--5-----|-----------|-----------|--
G|--------------|-----------|--------|-----------|-----------|--
D|--------------|-----------|--------|-----------|-----------|--
A|--------------|-----------|--------|-----------|-----------|--
E|--------------|-----------|--------|-----------|-----------|--

Stave 5:

E|-----------|--------------|-----------|-----------5-----|--------------|--
B|--7--3-----|--7--3--------|-----------|--5-----5-----7--|--3-----------|--
G|-----------|--------5-----|--------5--|-----------------|--------5--5--|--
D|--------7--|-----------6--|--4--------|-----------------|-----6--------|--
A|-----------|--------------|-----------|-----------------|--------------|--
E|-----------|--------------|-----------|-----------------|--------------|--

Stave 6:

E|-----------|-----------|--5-----5--|-----------------|--
B|-----------|-----------|-----------|--7--5--4--5-----|--
G|--4--------|-----------|-----------|-----------------|--
D|-----5--5--|-----------|-----------|-----------------|--
A|-----------|-----------|-----------|-----------------|--
E|-----------|-----------|-----------|-----------------|--

Stave 7:

E|-----4--7--|--5-----5--------|--------|-----4--|--5--5--5--|-----------|--
B|-----------|-----------7--4--|--5-----|--------|-----------|--3--------|--
G|-----------|-----------------|--------|--------|-----------|-----------|--
D|-----------|-----------------|--------|--------|-----------|-----7--7--|--
A|-----------|-----------------|--------|--------|-----------|-----------|--
E|-----------|-----------------|--------|--------|-----------|-----------|--

Stave 8:

E|--------------|-----------|--------5-----|--------------|-----------|--|--
B|--7--5--------|-----------|--5--5-----7--|--3-----------|-----------|--|--
G|--------5-----|--------5--|--------------|--------5-----|-----------|--|--
D|-----------7--|--4--------|--------------|-----7-----2--|--4--7--7--|--|--
A|--------------|-----------|--------------|--------------|-----------|--|--
E|--------------|-----------|--------------|--------------|-----------|--|--

http://www.guitartabcreator.com
Guitar Tab Creator is intended to store guitar tab created through the tool. It currently does not support in-line text editing. Any text you place in here will be lost. If you need to comment on your tab, please use the "Tab Notes" section located below.