Sound will begin in 5 seconds

EP136

Chords
01234567891011121314151617181920212223
E
B
G
D
A
E
B
0 1 2 3 4 5 6 7 8 9 10 11 12 13 14 15 16 17 18 19 20 21 22 23
Song Science #1: How Pros Use 6 Chords to Write Hit Songs
(/) Slide Up  (\) Slide Down  (h) Hammer On  (p) Pull Off  (b) Bend (r) Release (v) Vibrato

Stave 1:

E|--0-----1-----|--0--------0-----------|--------------------|--------------|--
B|--1-----1-----|--1-----3-----1--------|--------1--------1--|-----------1--|--
G|--0-----2-----|--0--------------0-----|-----0-----------0--|-----0--0-----|--
D|--2-----3-----|--2-----------------3--|--2-----------2-----|--------------|--
A|--3-----3-----|--3--------------------|--------------------|--3-----------|--
E|--------------|-----------------------|-----------3--------|--------------|--

Stave 2:

E|--1-----1----------1-----|--1--------1----1--1-----2--|--3-----5/7--3-----3--
B|--1-------------1--------|--1--------1/3--1--1-----2--|--3-------------3--5--
G|--2--------2/3--------3--|--2-----2----------2-----3--|--4-------------------
D|--3----------------------|--3----------------------4--|--5-------------------
A|--3----------------------|--3-------------------------|----------------------
E|-------------------------|----------------------------|----------------------

Stave 3:

E|--3--8--5-----------------------------|--------------1--1--|--0-------------
B|--6--------8--5--6--5-----------------|--------5-----1--1--|--1----------6--
G|-----------------------7--5-----------|--------5-----2--2--|--0-------5-----
D|-----------------------------7--5-----|-----5--------3--3--|--2----5--------
A|-----------------------------------5--|--3-----------3--3--|--3/7-----------
E|--------------------------------------|--------------------|----------------

Stave 4:

E|-----------
B|--5--------
G|-----7--5--
D|-----------
A|-----------
E|-----------

Stave 5:

E|--------------------------------|--------6----------|-----------------------|--
B|--------------------------------|--------6----------|--6-----5--------------|--
G|-------------5-----5-------5----|--5-----7----------|--5--------7--5--------|--
D|--5----------------5/7-----5/7--|--5-----8-----5/7--|--7--------------5--3--|--
A|--5/7---------------------------|--------8----------|-----------------------|--
E|--------------------------------|--------6----------|-----------------------|--

Stave 6:

E|-------------------------------|---------------10-----------------|--
B|----------6-----6--------------|--------8--12------12-------------|--
G|-------5--------5--7--5--------|-----7-----------------12------9--|--
D|--5/7--------7-----------7--8--|--9------------------------12-----|--
A|-------------------------------|----------------------------------|--
E|-------------------------------|----------------------------------|--

Stave 7:

E|----------8-----------------------|---------------------------|--------------|--
B|------10-----10---------10--8-----|---------5-----4-----3-----|--1--5--3--1--|--
G|--10-------------8------10--8--9--|---------------------------|--------------|--
D|--------------------10------------|--10--5-----5--4--3-----3--|--2--5--3--2--|--
A|----------------------------------|---------------------------|--------------|--
E|----------------------------------|---------------------------|--------------|--

Stave 8:

E|-----------5-----------|-----------5-----5--4--1--|--3--5--|--1--1--------|--
B|--3--5--------8--5-----|--8-----------------------|--------|-----1--3--1--|--
G|--------------------6--|--------5--------5--4--2--|--3--5--|--------------|--
D|--3--5-----------------|--------------------------|--------|--------------|--
A|-----------------------|--------------------------|--------|--------------|--
E|-----------------------|--------------------------|--------|--------------|--

Stave 9:

E|-----------5-----5--5--|--3--------3--2--|--1-----------------|-----------------------
B|--1--------------------|-----------------|-----------5-----3--|--1--------------1-----
G|--1--2-----5-----5--5--|--4-----4-----3--|--2-----------------|--------------0--------
D|-----------------------|-----------------|--------5-----3-----|--2-----2--3--------3--
A|-----------------------|-----------------|--------------------|-----------------------
E|-----------------------|-----------------|--------------------|-----------------------

Stave 10:

E|--|--
B|--|--
G|--|--
D|--|--
A|--|--
E|--|--

http://www.guitartabcreator.com
Guitar Tab Creator is intended to store guitar tab created through the tool. It currently does not support in-line text editing. Any text you place in here will be lost. If you need to comment on your tab, please use the "Tab Notes" section located below.