Sound will begin in 5 seconds

Blue Star

01234567891011121314151617181920212223
E
B
G
D
A
E
B
0 1 2 3 4 5 6 7 8 9 10 11 12 13 14 15 16 17 18 19 20 21 22 23
Song Science #1: How Pros Use 6 Chords to Write Hit Songs
(/) Slide Up  (\) Slide Down  (h) Hammer On  (p) Pull Off  (b) Bend (r) Release (v) Vibrato

Stave 1:

E|-----9---------5--------------------------------------------------5--4-----4--------------------------
B|--------10--------7--------------------------------------7--5--5--------7-----7--5--7--5-----5--7--5--
G|--9---------6-----------6--4-----------------6--4--6--7-----------------------------------7-----------
D|------------------------------7--6--4--6--7-----------------------------------------------------------
A|---------------------7--------------------------------------------------------------------------------
E|------------------------------------------------------------------------------------------------------

Stave 2:

E|-----------------------------------------------------------------------5--4-----4--------------------
B|--------------------------------------------------------------7--5--5--------7-----7--5--7--5--------
G|--7--6--4--4--6--------4-----6--4-----------------6--4--6--7-----------------------------------7--6--
D|-----------------7--4--------------7--6--4--6--7-----------------------------------------------------
A|--------------------------7--------------------------------------------------------------------------
E|-----------------------------------------------------------------------------------------------------

Stave 3:

E|--------5--5-----9---------5--------9--7-------------------9--7--9--10--14--12--12--17--16--14--16--14--
B|--7--7--------------10--------7--9--------10--9--7--9--10-----------------------------------------------
G|--------------9---------6-------------------------------------------------------------------------------
D|--------------------------------------------------------------------------------------------------------
A|--------------------------------------------------------------------------------------------------------
E|--------------------------------------------------------------------------------------------------------

Stave 4:

E|-----12--14--12------12--14--12----------------------------------|-----9--7-------------------9--7--9--
B|-----------------15--------------15--14--12--12--14----------12--|-----------10--9--7--9--10-----------
G|-----------------------------------------------------14--11------|--9----------------------------------
D|-----------------------------------------------------------------|-------------------------------------
A|-----------------------------------------------------------------|-------------------------------------
E|-----------------------------------------------------------------|-------------------------------------

Stave 5:

E|--10--14--12--12--17--16--14--16--14--12--14------12--14--12----------14--14--17--17--21--|--
B|----------------------------------------------15--------------15--14----------------------|--
G|------------------------------------------------------------------------------------------|--
D|------------------------------------------------------------------------------------------|--
A|------------------------------------------------------------------------------------------|--
E|------------------------------------------------------------------------------------------|--

Stave 6:

E|------12---------8------|------------------------------------------------8--7------7--------------------
B|----------13--------10--|--------------------------------------10--8--8--------10-----10--8--10--8------
G|--12----------9---------|------9--7-------------------9--7--9---------------------------------------10--
D|------------------------|------------10--9--7--9--10----------------------------------------------------
A|------------------------|--10---------------------------------------------------------------------------
E|------------------------|-------------------------------------------------------------------------------

Stave 7:

E|---------------------------8--8--|------12---------8------|--
B|--8--10--8---------10--10--------|----------13--------10--|--
G|------------10--9----------------|--12----------9---------|--
D|---------------------------------|------------------------|--
A|---------------------------------|------------------------|--
E|---------------------------------|------------------------|--

http://www.guitartabcreator.com
Guitar Tab Creator is intended to store guitar tab created through the tool. It currently does not support in-line text editing. Any text you place in here will be lost. If you need to comment on your tab, please use the "Tab Notes" section located below.