Amazing Grace #2

01234567891011121314151617181920212223
E
B
G
D
A
E
B
0 1 2 3 4 5 6 7 8 9 10 11 12 13 14 15 16 17 18 19 20 21 22 23
(/) Slide Up  (\) Slide Down  (h) Hammer On  (p) Pull Off  (b) Bend (r) Release (v) Vibrato

G___________________________________________C_____________________G

E|--------3-----3-----|--------3-----------|--------0-----0-----|-----3-----3--------|--
B|--------0-----0-----|--------0-----------|--------1-----1-----|-----0-----0--------|--
G|--------0-----0-----|--------0-----------|--------0-----0-----|-----0-----0--------|--
D|--------0-----0-----|--------0-----------|--------2-----2-----|-----0-----0--------|--
A|--------------------|--2-----------2-----|--3-----------------|--------------------|--
E|--3-----------------|--------------------|--------------------|--3-----------------|--

G________________________Em_________________Am__________________D7

E|--------3-----------|--------0-----------|--------0-----------|--------------------|--
B|--------0-----------|--------0-----------|--------1-----------|--------------------|--
G|--------0-----------|--------0-----------|--------2-----------|--------------------|--
D|--------0-----------|--------2-----------|--------2-----2-----|--0-----------------|--
A|--------------------|--------2-----2-----|--0-----------------|--------------------|--
E|--3-----------2-----|--0-----------------|--------------------|--------0-----2-----|--

G____________________________________________C___________________G

E|--------3-----------|--------3-----------|--------0-----0-----|--------3-----------|--
B|--------0-----------|--------0-----------|--------1-----1-----|--------0-----------|--
G|--------0-----------|--------0-----------|--------0-----0-----|--------0-----------|--
D|--------0-----------|--------0-----------|--------2-----2-----|--------0-----------|--
A|--------------0-----|--2-----------0--2--|--3-----------------|--------------------|--
E|--3-----------------|--------------------|--------------------|--3-----------3--2--|--

Em______________________D7___________________G_______________________________

E|--------0-----------|--------2-----------|--------3-----3-----|--------3-----3-----|--
B|--------0-----------|--------1-----------|--------0-----0-----|--------0-----0-----|--
G|--------0-----------|--------2-----------|--------0-----0-----|--------0-----0-----|--
D|--------2-----------|--0-----0-----------|--------0-----0-----|--------0-----0-----|--
A|--------2-----2--3--|--------------------|--------------------|--2-----------------|--
E|--0-----------------|--------------2-----|--3-----------------|--------------------|--

							http://www.guitartabcreator.com
Chords

Instruments
{"strings":[[[".","_",3,"_",3,"_","|","_","_",3,"_","_","_","|","_","_",0,"_",0,"_","|","_",3,"_",3,"_","_","|"],[".","_",0,"_",0,"_","|","_","_",0,"_","_","_","|","_","_",1,"_",1,"_","|","_",0,"_",0,"_","_","|"],[".","_",0,"_",0,"_","|","_","_",0,"_","_","_","|","_","_",0,"_",0,"_","|","_",0,"_",0,"_","_","|"],[".","_",0,"_",0,"_","|","_","_",0,"_","_","_","|","_","_",2,"_",2,"_","|","_",0,"_",0,"_","_","|"],[".","_","_","_","_","_","|",2,"_","_","_",2,"_","|",3,"_","_","_","_","_","|","_","_","_","_","_","_","|"],[3,"_","_","_","_","_","|","_","_","_","_","_","_","|","_","_","_","_","_","_","|",3,"_","_","_","_","_","|"]],[[".","_",3,"_","_","_","|","_","_",0,"_","_","_","|","_","_",0,"_","_","_","|","_","_","_","_","_","_","|"],[".","_",0,"_","_","_","|","_","_",0,"_","_","_","|","_","_",1,"_","_","_","|","_","_","_","_","_","_","|"],[".","_",0,"_","_","_","|","_","_",0,"_","_","_","|","_","_",2,"_","_","_","|","_","_","_","_","_","_","|"],[".","_",0,"_","_","_","|","_","_",2,"_","_","_","|","_","_",2,"_",2,"_","|",0,"_","_","_","_","_","|"],[".","_","_","_","_","_","|","_","_",2,"_",2,"_","|",0,"_","_","_","_","_","|","_","_","_","_","_","_","|"],[3,"_","_","_",2,"_","|",0,"_","_","_","_","_","|","_","_","_","_","_","_","|","_","_",0,"_",2,"_","|"]],[[".","_",3,"_","_","_","|","_","_",3,"_","_","_","|","_","_",0,"_",0,"_","|","_","_",3,"_","_","_","|"],[".","_",0,"_","_","_","|","_","_",0,"_","_","_","|","_","_",1,"_",1,"_","|","_","_",0,"_","_","_","|"],[".","_",0,"_","_","_","|","_","_",0,"_","_","_","|","_","_",0,"_",0,"_","|","_","_",0,"_","_","_","|"],[".","_",0,"_","_","_","|","_","_",0,"_","_","_","|","_","_",2,"_",2,"_","|","_","_",0,"_","_","_","|"],[".","_","_","_",0,"_","|",2,"_","_","_",0,2,"|",3,"_","_","_","_","_","|","_","_","_","_","_","_","|"],[3,"_","_","_","_","_","|","_","_","_","_","_","_","|","_","_","_","_","_","_","|",3,"_","_","_",3,2,"|"]],[[".","_",0,"_","_","_","|","_","_",2,"_","_","_","|","_","_",3,"_",3,"_","|","_","_",3,"_",3,"_","|"],[".","_",0,"_","_","_","|","_","_",1,"_","_","_","|","_","_",0,"_",0,"_","|","_","_",0,"_",0,"_","|"],[".","_",0,"_","_","_","|","_","_",2,"_","_","_","|","_","_",0,"_",0,"_","|","_","_",0,"_",0,"_","|"],[".","_",2,"_","_","_","|",0,"_",0,"_","_","_","|","_","_",0,"_",0,"_","|","_","_",0,"_",0,"_","|"],[".","_",2,"_",2,3,"|","_","_","_","_","_","_","|","_","_","_","_","_","_","|",2,"_","_","_","_","_","|"],[0,"_","_","_","_","_","|","_","_","_","_",2,"_","|",3,"_","_","_","_","_","|","_","_","_","_","_","_","|"]]],"numberofstrings":6,"notes":["E","B","G","D","A","E","B"],"capo":0,"stringnotes":["E4","B3","G3","D3","A2","E2"],"comments":["G___________________________________________C_____________________G","G________________________Em_________________Am__________________D7","G____________________________________________C___________________G","Em______________________D7___________________G_______________________________"],"timing":[["W","W","W","W","W","W",null,"W","W","W","W","W","W",null,"W","W","W","W","W","W",null,"W","W","W",null,"W"],["W","W","W","W","W","W",null,"W","W","W","W","W","W",null,"W","W","W","W","W","W",null,"W","W","W","W","W","W"],["W","W","W","W","W","W","W","W","W","W","W","W","W","W","W","W","W","W","W","W",null,"W","W","W","W","W","W","W","W"],["W","W","W","W","W","W",null,"W","W","W",null,"W","W",null,"W","W","W","W","W","W",null,"W","W","W","W","W","W"]],"timingvisible":false,"tabcounter":28,"stave":0,"totalstaves":4,"instrument":"6guitar","selectedtuning":"6_standard","version":"13"}

Member for

1 month 2 weeks
Submitted by wingz13 on Sun, 2021-12-05 13:12