Thrash Funk

Chords

01234567891011121314151617181920212223
E
B
G
D
A
E
B
0 1 2 3 4 5 6 7 8 9 10 11 12 13 14 15 16 17 18 19 20 21 22 23
(/) Slide Up  (\) Slide Down  (h) Hammer On  (p) Pull Off  (b) Bend (r) Release (v) Vibrato

Verse: 

G|-----------------------------------------
D|--------5--7-----7--7--7--5--5-----------
A|-----7--------------------------7--5-----
E|--5-----------------------------------8--

Chorus:

G|----------------------------------------------------------------------------------------------------------
D|----------------------------------------------------------------------------------------------------------
A|----------------------------------------------------------------------------------------------------------
E|--5--5--5--5--5--5--5--5--3--3--3--3--3--3--3--3--10--10--10--10--10--10--10--10--8--8--8--8--8--8--8--8--

Bridge: 

G|-----------------------------------------------------------------------------
D|--7--5--------------------------------------7--5-----------------------------
A|--------7--5--3-----------------3-----------------7--5--3-----------------3--
E|-----------------3--5--3--5--3-----5--3--------------------3--5--3--5--3-----

Bridge:

G|---------------------------------------------------------------------------------------------
D|---------------------------------------------------------------------------------------------
A|--3--------3--------3--------3--5--3--------5-----3--5--3-----5-----12--10-------------------
E|-----3--5-----5--3-----3--5-----------5--------5-----------5----------------12--10--8--5--3--

							http://www.guitartabcreator.com
Instruments
{"strings":[[[".",".",".",".","_",".",".",".",".",".",".",".","."],[".",".",5,7,"_",7,7,7,5,5,".",".","."],[".",7,".",".","_",".",".",".",".",".",7,5,"."],[5,".",".",".","_",".",".",".",".",".",".",".",8]],[[".",".",".",".",".",".",".",".",".",".",".",".",".",".",".",".",".",".",".",".",".",".",".",".",".",".",".",".",".",".",".","."],[".",".",".",".",".",".",".",".",".",".",".",".",".",".",".",".",".",".",".",".",".",".",".",".",".",".",".",".",".",".",".","."],[".",".",".",".",".",".",".",".",".",".",".",".",".",".",".",".",".",".",".",".",".",".",".",".",".",".",".",".",".",".",".","."],[5,5,5,5,5,5,5,5,3,3,3,3,3,3,3,3,10,10,10,10,10,10,10,10,8,8,8,8,8,8,8,8]],[[".",".",".",".",".",".",".",".",".",".",".",".",".","_",".",".",".",".",".",".",".",".",".",".","."],[7,5,".",".",".",".",".",".",".",".",".",".",".","_",7,5,".",".",".",".",".",".",".",".","."],[".",".",7,5,3,".",".",".",".",".",3,".",".","_",".",".",7,5,3,".",".",".",".",".",3],[".",".",".",".",".",3,5,3,5,3,".",5,3,"_",".",".",".",".",".",3,5,3,5,3,"."]],[[".",".",".",".",".",".",".",".",".",".",".",".",".","_",".",".",".",".",".",".",".","_",".",".",".",".",".",".","."],[".",".",".",".",".",".",".",".",".",".",".",".",".","_",".",".",".",".",".",".",".","_",".",".",".",".",".",".","."],[3,".",".",3,".",".",3,".",".",3,5,3,".","_",5,".",3,5,3,".",5,"_",12,10,".",".",".",".","."],[".",3,5,".",5,3,".",3,5,".",".",".",5,"_",".",5,".",".",".",5,".","_",".",".",12,10,8,5,3]]],"numberofstrings":4,"notes":["G","D","A","E"],"capo":0,"stringnotes":["G2","D2","A1","E1"],"comments":["Verse: ","Chorus:","Bridge: ","Bridge:"],"timing":[[null,null,null,null,null,null,null,null,null,null,null,null,null],[null,null,null,null,null,null,null,null,null,null,null,null,null,null,null,null,null,null,null,null,null,null,null,null,null,null,null,null,null,null,null,null],[null,null,null,null,null,null,null,null,null,null,null,null,null,null,null,null,null,null,null,null,null,null,null,null,null],[null,null,null,null,null,null,null,null,null,null,null,null,null,null,null,null,null,null,null,null,null,null,null,null,null,null,null,null,null]],"timingvisible":false,"tabcounter":29,"stave":3,"totalstaves":4,"instrument":"4bass","selectedtuning":"4bass","version":"13"}

Member for

2 weeks 1 day
Submitted by wingsauss on Thu, 2020-11-19 07:50