Pickup Lines

Chords

01234567891011121314151617181920212223
E
B
G
D
A
E
B
0 1 2 3 4 5 6 7 8 9 10 11 12 13 14 15 16 17 18 19 20 21 22 23
(/) Slide Up  (\) Slide Down  (h) Hammer On  (p) Pull Off  (b) Bend (r) Release (v) Vibrato

Verse:

G|--------------------------------------
D|--------------------------------------
A|--2--------4-----------------7-----4--
E|--------------------4-----------------

Pre-Chorus:

G|--------------------------------
D|--------------------------------
A|--------------------------------
E|--2--------5--------2--------5--

Chorus:

G|-----------------------------------------------------------------------
D|-----------------------------------------------------------------------
A|--2--4--6-----6--7-----2--4--6-----6--7-----2--4--6--7-----2--4--6--7--
E|-----------4--------------------4--------------------------------------

Solo:

G|-----------------------
D|-----------------------
A|--2-----------6-----7--
E|--------4--------------

							http://www.guitartabcreator.com
Instruments
{"strings":[[[".","_","_",".","_","_",".","_","_",".","_","."],[".","_","_",".","_","_",".","_","_",".","_","."],[2,"_","_",4,"_","_",".","_","_",7,"_",4],[".","_","_",".","_","_",4,"_","_",".","_","."]],[[".","_","_",".","_","_",".","_","_","."],[".","_","_",".","_","_",".","_","_","."],[".","_","_",".","_","_",".","_","_","."],[2,"_","_",5,"_","_",2,"_","_",5]],[[".",".",".",".",".",".","_",".",".",".",".",".",".","_",".",".",".",".","_",".",".",".","."],[".",".",".",".",".",".","_",".",".",".",".",".",".","_",".",".",".",".","_",".",".",".","."],[2,4,6,".",6,7,"_",2,4,6,".",6,7,"_",2,4,6,7,"_",2,4,6,7],[".",".",".",4,".",".","_",".",".",".",4,".",".","_",".",".",".",".","_",".",".",".","."]],[[".","_",".","_",".","_","."],[".","_",".","_",".","_","."],[2,"_",".","_",6,"_",7],[".","_",4,"_",".","_","."]]],"numberofstrings":4,"notes":["G","D","A","E"],"capo":0,"stringnotes":["G2","D2","A1","E1"],"comments":["Verse:","Pre-Chorus:","Chorus:","Solo:"],"timing":[[null,null,null,null,null,null,null,null,null,null,null,null],[null,null,null,null,null,null,null,null,null,null],[null,null,null,null,null,null,null,null,null,null,null,null,null,null,null,null,null,null,null,null,null,null,null],[null,null,null,null,null,null,null]],"timingvisible":false,"tabcounter":7,"stave":3,"totalstaves":4,"instrument":"4bass","selectedtuning":"4bass","version":"13"}

Member for

2 weeks 1 day
Submitted by wingsauss on Thu, 2020-11-19 08:41