Myself

Chords

01234567891011121314151617181920212223
E
B
G
D
A
E
B
0 1 2 3 4 5 6 7 8 9 10 11 12 13 14 15 16 17 18 19 20 21 22 23
(/) Slide Up  (\) Slide Down  (h) Hammer On  (p) Pull Off  (b) Bend (r) Release (v) Vibrato

Verse 2: x3

G|-----------------------------------------------------
D|-----------------------------------------------------
A|-----------------------------4-----4--4--4-----------
E|--4-----4--4-----2-----2--4--------------------1--2--

Verse 2 : x1

G|--------------------------------------------------
D|--6--4--3-----------------------------------------
A|-----------6--4--3--1-----------------------------
E|-----------------------4--2-----2--2--1-----1--2--

Verse 2: x2

G|-----------------------------------------------------
D|-----------------------------------------------------
A|-----------------------------4-----4--4--2-----------
E|--4-----4--4-----2-----2--4--------------------1--2--

Chorus/Bridge:

G|-----------------------------------------------------
D|--------------4-----3-----------3--------------------
A|-----------6-----------4--4--2-----4--4--------------
E|--4--4--4--------------------------------1--1--2-----

							http://www.guitartabcreator.com
Instruments
{"strings":[[[".","_",".",".","_",".","_",".",".",".","_",".",".",".","_",".","."],[".","_",".",".","_",".","_",".",".",".","_",".",".",".","_",".","."],[".","_",".",".","_",".","_",".",".",4,"_",4,4,4,"_",".","."],[4,"_",4,4,"_",2,"_",2,4,".","_",".",".",".","_",1,2]],[[".",".",".",".",".",".",".",".",".","_",".",".",".","_",".","."],[6,4,3,".",".",".",".",".",".","_",".",".",".","_",".","."],[".",".",".",6,4,3,1,".",".","_",".",".",".","_",".","."],[".",".",".",".",".",".",".",4,2,"_",2,2,1,"_",1,2]],[[".","_",".",".","_",".","_",".",".",".","_",".",".",".","_",".","."],[".","_",".",".","_",".","_",".",".",".","_",".",".",".","_",".","."],[".","_",".",".","_",".","_",".",".",4,"_",4,4,2,"_",".","."],[4,"_",4,4,"_",2,"_",2,4,".","_",".",".",".","_",1,2]],[[".",".",".",".",".","_",".",".",".",".",".",".",".",".",".",".","_"],[".",".",".",".",4,"_",3,".",".",".",3,".",".",".",".",".","_"],[".",".",".",6,".","_",".",4,4,2,".",4,4,".",".",".","_"],[4,4,4,".",".","_",".",".",".",".",".",".",".",1,1,2,"_"]]],"numberofstrings":4,"notes":["G","D","A","E"],"capo":0,"stringnotes":["G2","D2","A1","E1"],"comments":["Verse 2: x3","Verse 2 : x1","Verse 2: x2","Chorus/Bridge:"],"timing":[["W",null,"W","W",null,"W",null,"W","W","W",null,"W","W","W",null,"W","W","W"],["W","W","W","W","W","W","W","W","W",null,"W","W","W",null,"W","W"],["W",null,"W","W",null,"W",null,"W","W","W",null,"W","W","W",null,"W","W","W"],["W","W","W","W","W",null,"W","W","W","W","W","W","W","W","W","W","W"]],"timingvisible":false,"tabcounter":17,"stave":3,"totalstaves":4,"instrument":"4bass","selectedtuning":"4bass","version":"13"}

Member for

2 weeks 1 day
Submitted by wingsauss on Thu, 2020-11-19 11:16