Demons

Chords

01234567891011121314151617181920212223
E
B
G
D
A
E
B
0 1 2 3 4 5 6 7 8 9 10 11 12 13 14 15 16 17 18 19 20 21 22 23
(/) Slide Up  (\) Slide Down  (h) Hammer On  (p) Pull Off  (b) Bend (r) Release (v) Vibrato

Verse1:

G|----------------------------------
D|----------------------------------
A|----------------------------------
E|--7\---8--9\------7\---8--9\---2--

Pre-Chorus:

G|--------------------------------------------------------------------------------
D|--------------------------------------------------------------------------------
A|-----9--8--7-----------7-----------9--8--7--------------------------------------
E|--7-----------5-----9-----------7-----------5-----------5--5--5--5--5--5--5--5--

Chorus:

G|--------------------------------------------------
D|--------------------------------------------------
A|-----------7--7--7--7--7-----------4--4-----------
E|--7--7--7-----------------5--5--5--------2--2--5--

verse2:

G|--------------------------------------------------
D|-----9--------------------------9-----------------
A|-----------7--7--9--7--------------9--9--7--7-----
E|--7-----9--------------9-----7-----------------9--

							http://www.guitartabcreator.com
Instruments
{"strings":[[[".",".","_",".",".",".","_","_",".",".","_",".",".",".","_","."],[".",".","_",".",".",".","_","_",".",".","_",".",".",".","_","."],[".",".","_",".",".",".","_","_",".",".","_",".",".",".","_","."],[7,"\\","_",8,9,"\\","_","_",7,"\\","_",8,9,"\\","_",2]],[[".",".",".",".",".","_",".",".","_","_",".",".",".",".",".","_","_","_",".",".",".",".",".",".",".","."],[".",".",".",".",".","_",".",".","_","_",".",".",".",".",".","_","_","_",".",".",".",".",".",".",".","."],[".",9,8,7,".","_",".",7,"_","_",".",9,8,7,".","_","_","_",".",".",".",".",".",".",".","."],[7,".",".",".",5,"_",9,".","_","_",7,".",".",".",5,"_","_","_",5,5,5,5,5,5,5,5]],[[".",".",".",".",".",".",".",".",".",".",".",".",".",".",".","."],[".",".",".",".",".",".",".",".",".",".",".",".",".",".",".","."],[".",".",".",7,7,7,7,7,".",".",".",4,4,".",".","."],[7,7,7,".",".",".",".",".",5,5,5,".",".",2,2,5]],[[".",".",".",".",".",".",".",".","_",".",".",".",".",".",".","."],[".",9,".",".",".",".",".",".","_",".",9,".",".",".",".","."],[".",".",".",7,7,9,7,".","_",".",".",9,9,7,7,"."],[7,".",9,".",".",".",".",9,"_",7,".",".",".",".",".",9]]],"numberofstrings":4,"notes":["G","D","A","E"],"capo":0,"stringnotes":["G2","D2","A1","E1"],"comments":["Verse1:","Pre-Chorus:","Chorus:","verse2:"],"timing":[["W","W","W","W","W",null,"W",null,"W","W","W","W","W",null,"W","W"],["W","W","W","W","W",null,"W","W",null,null,"W","W","W","W","W",null,null,null,"W","W","W","W","W","W","W","W"],["W","W","W","W","W","W","W","W","W","W","W","W","W","W","W","W","W"],["W","W","W","W","W","W","W","W",null,"W","W","W","W","W","W","W"]],"timingvisible":false,"tabcounter":16,"stave":3,"totalstaves":4,"instrument":"4bass","selectedtuning":"4bass","version":"13"}

Member for

2 weeks 1 day
Submitted by wingsauss on Thu, 2020-11-19 08:27