The Choice

Chords

01234567891011121314151617181920212223
E
B
G
D
A
E
B
0 1 2 3 4 5 6 7 8 9 10 11 12 13 14 15 16 17 18 19 20 21 22 23
(/) Slide Up  (\) Slide Down  (h) Hammer On  (p) Pull Off  (b) Bend (r) Release (v) Vibrato

Stave 1:

E|--------------------------------------------------
B|--------------------------------------------------
G|--------------------------------------------------
D|-----5-----2-----4-----5-----2-----4-----0-----2--
A|--7-----3-----5-----7-----3-----5-----2-----3-----
E|--------------------------------------------------

Stave 2:

E|-------------------------------------------------------------------------------------
B|-------------------------------------------------------------------------------------
G|-------------------------------------------------------------------------------------
D|--------------6--7--9---------10-------------6--------6--7/9--------7-------------6--
A|-----7-----7--------------12------7h9-----7--------7-------------7-----7h9-----7-----
E|--0-----0--------------0---------------0--------0-------------0-------------0--------

Stave 3:

E|----------------------------------------------------
B|----------0-----------------------------------------
G|----------------------------------------------------
D|-------4-----4--------2--2--------6-----6-----4-----
A|--2\5-----------5--3-----------7-----7-----7-----6--
E|----------------------------0-----------------------

Stave 4:

E|--------------------------------------------------
B|--------------------------------------------------
G|--------------------------------------------------
D|-----5-----2-----4-----5-----2-----4-----0-----2--
A|--7-----3-----5-----7-----3-----5-----2-----3-----
E|--------------------------------------------------

							http://www.guitartabcreator.com
Instruments
{"strings":[[[".",".",".",".",".",".",".",".",".",".",".",".",".",".",".","."],[".",".",".",".",".",".",".",".",".",".",".",".",".",".",".","."],[".",".",".",".",".",".",".",".",".",".",".",".",".",".",".","."],[".",5,".",2,".",4,".",5,".",2,".",4,".",0,".",2],[7,".",3,".",5,".",7,".",3,".",5,".",2,".",3,"."],[".",".",".",".",".",".",".",".",".",".",".",".",".",".",".","."]],[[".",".",".",".",".",".",".",".",".",".",".",".",".",".",".",".",".",".",".",".",".",".",".",".",".",".",".",".",".",".","."],[".",".",".",".",".",".",".",".",".",".",".",".",".",".",".",".",".",".",".",".",".",".",".",".",".",".",".",".",".",".","."],[".",".",".",".",".",".",".",".",".",".",".",".",".",".",".",".",".",".",".",".",".",".",".",".",".",".",".",".",".",".","."],[".",".",".",".",6,7,9,".",".",10,".",".",".",".",".",6,".",".",6,7,"/",9,".",".",7,".",".",".",".",".",6],[".",7,".",7,".",".",".",".",12,".",7,"h",9,".",7,".",".",7,".",".",".",".",".",7,".",7,"h",9,".",7,"."],[0,".",0,".",".",".",".",0,".",".",".",".",".",0,".",".",0,".",".",".",".",".",0,".",".",".",".",".",0,".","."]],[[".",".",".",".",".",".",".",".",".",".",".",".",".",".",".",".",".","."],[".",".",".",".",0,".",".",".",".",".",".",".",".",".",".",".",".","."],[".",".",".",".",".",".",".",".",".",".",".",".",".",".",".",".",".","."],[".",".",".",4,".",4,".",".",2,2,".",".",6,".",6,".",4,"."],[2,"\\",5,".",".",".",5,3,".",".",".",7,".",7,".",7,".",6],[".",".",".",".",".",".",".",".",".",".",0,".",".",".",".",".",".","."]],[[".",".",".",".",".",".",".",".",".",".",".",".",".",".",".","."],[".",".",".",".",".",".",".",".",".",".",".",".",".",".",".","."],[".",".",".",".",".",".",".",".",".",".",".",".",".",".",".","."],[".",5,".",2,".",4,".",5,".",2,".",4,".",0,".",2],[7,".",3,".",5,".",7,".",3,".",5,".",2,".",3,"."],[".",".",".",".",".",".",".",".",".",".",".",".",".",".",".","."]]],"numberofstrings":6,"notes":["E","B","G","D","A","E","B"],"capo":0,"stringnotes":["E4","B3","G3","D3","A2","E2"],"comments":["Stave 1:","Stave 2:","Stave 3:","Stave 4:"],"timing":[["W","W","W","W","W","W","W","W","W","W","W","W","W","W","W","W"],["W","W","W","W","W","W","W","W","W","W","W",null,"W","W","W","W","W","W","W","W",null,"W","W","W","W","W",null,"W","W","W","W"],["W",null,"W","W","W","W","W","W","W","W","W","W","W","W","W","W","W","W"],["W","W","W","W","W","W","W","W","W","W","W","W","W","W","W","W","W","W"]],"timingvisible":false,"tabcounter":16,"stave":3,"totalstaves":4,"instrument":"6guitar","selectedtuning":"6_standard","version":"13"}

Member for

2 months 1 week
Picture
About Me
soy youtuber xd
Submitted by will360 on Mon, 2020-10-26 07:55