Sunshine of Your Love - Cream

Chords

01234567891011121314151617181920212223
E
B
G
D
A
E
B
0 1 2 3 4 5 6 7 8 9 10 11 12 13 14 15 16 17 18 19 20 21 22 23
(/) Slide Up  (\) Slide Down  (h) Hammer On  (p) Pull Off  (b) Bend (r) Release (v) Vibrato

Stave 1:

E|--------------------------------|--------------------------------|--
B|--------------------------------|--8--8--6--8--------------------|--
G|--7--7--5--7--------------------|--------------7--6--5--0--3--0--|--
D|--------------7--6--5--0--3--0--|--------------------------------|--
A|--------------------------------|--------------------------------|--
E|--------------------------------|--------------------------------|--

Stave 2:

E|-----------------------|--
B|-----------------------|--
G|-----------------------|--
D|--------------5--------|--
A|--7--7--7-----3-----5--|--
E|--5--5--5-----------3--|--

							http://www.guitartabcreator.com
Instruments
{"strings":[[[".",".",".",".",".",".",".",".",".",".","|",".",".",".",".",".",".",".",".",".",".","|"],[".",".",".",".",".",".",".",".",".",".","|",8,8,6,8,".",".",".",".",".",".","|"],[7,7,5,7,".",".",".",".",".",".","|",".",".",".",".",7,6,5,0,3,0,"|"],[".",".",".",".",7,6,5,0,3,0,"|",".",".",".",".",".",".",".",".",".",".","|"],[".",".",".",".",".",".",".",".",".",".","|",".",".",".",".",".",".",".",".",".",".","|"],[".",".",".",".",".",".",".",".",".",".","|",".",".",".",".",".",".",".",".",".",".","|"]],[[".",".",".","_",".","_",".","|"],[".",".",".","_",".","_",".","|"],[".",".",".","_",".","_",".","|"],[".",".",".","_",5,"_",".","|"],[7,7,7,"_",3,"_",5,"|"],[5,5,5,"_",".","_",3,"|"]]],"numberofstrings":6,"notes":["E","B","G","D","A","E","B"],"capo":0,"stringnotes":["E4","B3","G3","D3","A2","E2"],"comments":["Stave 1:","Stave 2:"],"timing":[["W","W","W","W","W","W","W","W","W","W",null,"W","W","W","W","W","W","W","W","W","W"],["W","W","W",null,"W",null,"W"]],"timingvisible":false,"tabcounter":8,"stave":1,"totalstaves":2,"instrument":"6guitar","selectedtuning":"6_standard","version":"13"}

Member for

8 months 1 week
Submitted by Will Gillett on Wed, 2020-10-07 08:28