I Love Rock and Roll

01234567891011121314151617181920212223
E
B
G
D
A
E
B
0 1 2 3 4 5 6 7 8 9 10 11 12 13 14 15 16 17 18 19 20 21 22 23
(/) Slide Up  (\) Slide Down  (h) Hammer On  (p) Pull Off  (b) Bend (r) Release (v) Vibrato

Stave 1:

E|-----------------------------------------------|--
B|-----------------------------------------------|--
G|-----------------------------------------------|--
D|-----------------------------------------------|--
A|-----------------------------------------------|--
E|--0--0-----0--0-----3-----5--5-----7--7-----3--|--

Stave 2:

E|-----------------------------------------------|--
B|-----------------------------------------------|--
G|-----------------------------------------------|--
D|-----------------------------------------------|--
A|-----------------------------------------------|--
E|--0--0-----0--0-----3-----5--5-----7--3--0--0--|--

Stave 3:

E|--------------------------------
B|--------------------------------
G|--------------------------------
D|--------------2--0--------------
A|--------------------2-----0-----
E|--0--0-----------------------3--

							http://www.guitartabcreator.com
Chords

Instruments
{"strings":[[[".",".","_",".",".","_",".","_",".",".","_",".",".","_",".","|"],[".",".","_",".",".","_",".","_",".",".","_",".",".","_",".","|"],[".",".","_",".",".","_",".","_",".",".","_",".",".","_",".","|"],[".",".","_",".",".","_",".","_",".",".","_",".",".","_",".","|"],[".",".","_",".",".","_",".","_",".",".","_",".",".","_",".","|"],[0,0,"_",0,0,"_",3,"_",5,5,"_",7,7,"_",3,"|"]],[[".",".","_",".",".","_",".","_",".",".","_",".",".",".",".","|"],[".",".","_",".",".","_",".","_",".",".","_",".",".",".",".","|"],[".",".","_",".",".","_",".","_",".",".","_",".",".",".",".","|"],[".",".","_",".",".","_",".","_",".",".","_",".",".",".",".","|"],[".",".","_",".",".","_",".","_",".",".","_",".",".",".",".","|"],[0,0,"_",0,0,"_",3,"_",5,5,"_",7,3,0,0,"|"]],[[".",".","_","_",".",".",".","_",".","."],[".",".","_","_",".",".",".","_",".","."],[".",".","_","_",".",".",".","_",".","."],[".",".","_","_",2,0,".","_",".","."],[".",".","_","_",".",".",2,"_",0,"."],[0,0,"_","_",".",".",".","_",".",3]]],"numberofstrings":6,"notes":["E","B","G","D","A","E","B"],"capo":0,"stringnotes":["E4","B3","G3","D3","A2","E2"],"comments":["Stave 1:","Stave 2:","Stave 3:"],"timing":[["W","W","W","W","W","W","W","W","W","W","W","W","W","W","W"],["W","W","W","W","W","W","W","W","W","W","W","W","W","W","W"],["W","W","W","W","W","W","W","W","W","W"]],"timingvisible":false,"tabcounter":10,"stave":2,"totalstaves":3,"instrument":"6guitar","selectedtuning":"6_standard","version":"13"}

Member for

1 year 10 months
Submitted by Will Gillett on Thu, 2022-01-06 12:29