Badflower x Ana X

01234567891011121314151617181920212223
E
B
G
D
A
E
B
0 1 2 3 4 5 6 7 8 9 10 11 12 13 14 15 16 17 18 19 20 21 22 23
(/) Slide Up  (\) Slide Down  (h) Hammer On  (p) Pull Off  (b) Bend (r) Release (v) Vibrato

Stave 1:

E|-----------------|--
B|-----------------|--
G|-----------------|--
D|-----------------|--
A|--4--4--2--------|--
E|-----------0--2--|--

Stave 2:

E|--------------------------------|--
B|--------------------------------|--
G|--------------------------------|--
D|-----------------------------2--|--
A|-----------------4--4--2--4-----|--
E|--3--3--3--2--0-----------------|--

Stave 3:

E|-----------------------|--
B|-----------------------|--
G|-----------------------|--
D|--2--4-----------------|--
A|--2--4-----------------|--
E|--0--2--3--3--3--2--0--|--

							http://www.guitartabcreator.com
Chords

Instruments
{"strings":[[[".",".",".",".",".","|"],[".",".",".",".",".","|"],[".",".",".",".",".","|"],[".",".",".",".",".","|"],[4,4,2,".",".","|"],[".",".",".",0,2,"|"]],[[".",".",".",".",".",".",".",".",".",".","|"],[".",".",".",".",".",".",".",".",".",".","|"],[".",".",".",".",".",".",".",".",".",".","|"],[".",".",".",".",".",".",".",".",".",2,"|"],[".",".",".",".",".",4,4,2,4,".","|"],[3,3,3,2,0,".",".",".",".",".","|"]],[[".",".",".",".",".",".",".","|"],[".",".",".",".",".",".",".","|"],[".",".",".",".",".",".",".","|"],[2,4,".",".",".",".",".","|"],[2,4,".",".",".",".",".","|"],[0,2,3,3,3,2,0,"|"]]],"numberofstrings":6,"notes":["E","B","G","D","A","E","B"],"capo":0,"stringnotes":["E4","B3","G3","D3","A2","E2"],"comments":["Stave 1:","Stave 2:","Stave 3:"],"timing":[["W","W","W","W","W"],["W","W","W","W","W","W","W","W","W","W"],["W","W","W","W","W","W","W"]],"timingvisible":false,"tabcounter":8,"stave":2,"totalstaves":3,"instrument":"6guitar","selectedtuning":"6_standard","version":"13"}

Member for

1 year 10 months
Submitted by Will Gillett on Fri, 2020-12-04 09:26