Stay Gold, Ponyboy

01234567891011121314151617181920212223
E
B
G
D
A
E
B
0 1 2 3 4 5 6 7 8 9 10 11 12 13 14 15 16 17 18 19 20 21 22 23
(/) Slide Up  (\) Slide Down  (h) Hammer On  (p) Pull Off  (b) Bend (r) Release (v) Vibrato

Intro (Guitar 1 Distortion)

E|----------------------------------
B|---10---10---10---10---10---10-10-
G|-------------------------------0--
D|-7----7----7----7----7----7----0--
A|----------------------------------
E|----------------------------------

Intro (Guitar 2 Distortion)

E|-------
B|-------
G|-7-7-7-
D|-7-7-7-
A|-5-5-5-
E|-------

Intro (Guitar 2 Distortion) (P) = Tie Note

E|--------
B|--------
G|----7-
D|----7-
A|----5-
E|--------

Interlude (Guitar 1 Clean)

E|--------------------------------------------------------------------------
B|--------10-------10-------10-------10-------10-------10-------10-------10p
G|----6--------6--------6--------6--------6--------6--------6--------6------
D|-7---7----7---7----7---7----7---7----7---7----7---7----7---7----7---7----
A|--------------------------------------------------------------------------
E|--------------------------------------------------------------------------

Interlude (Guitar 2 Distortion)

E|--
B|--
G|--
D|--
A|--
E|--

Chorus (Guitars 1 & 2 Heavy Distortion)

E|----------------------
B|-10------9-----9------
G|-x--16---x-6---x-12---
D|-7-------7-----6------
A|----------------------
E|----------------------

Chorus (Guitar 1 & 2 Heavy Distortion)

E|-------------------------------------
B|-------10-------10-------10-------10-
G|---6--------6--------6--------6---0--
D|-7---7----7---7----7---7----7---7-0--
A|-------------------------------------
E|-------------------------------------

Chorus ( Guitars 1 & 2 Heavy Distortion)

E|-----------------
B|-10--------------
G|-x--16---9-------
D|-7-------x-13----
A|---------7-------
E|-----------------

Chorus (Guitars 1 & 2 Heavy Distortion)

E|---------------------------------------------
B|-----------10-------10-------10---10/12\10---
G|---------6----6---6----6---6----6------------
D|-------7--------7----------------------------
A|-------------------------7-------------------
E|---------------------------------------------

Chorus (Guitars 1 & 2 Heavy Distortion)

E|-------------------------------------
B|----10-------------------------------
G|----x--6---0---7-------------9-7-6---
D|----7------0---x-6---7-------x-x-x---
A|---------------5-----7-x-6---7-5-4---
E|---------------------5---------------

Chorus (Guitars 1 & 2 Heavy Distortion)

E|-----------------------------------------------------------
B|-10-----9---7-----------9-----10-----9---7-----------------
G|-x--8---x---x-----------x-7---x--8---x---x-----------9-7-6-
D|-7------7---7---7-------6-----7------7---7---7-------x-x-x-
A|----------------7-x-6------------------------7-x-7---7-5-4-
E|----------------5----------------------------5-------------

Intro (Guitar 1 Distortion)

E|----------------------------------
B|---10---10---10---10---10---10-10-
G|-------------------------------0--
D|-7----7----7----7----7----7----0--
A|----------------------------------
E|----------------------------------

Intro (Guitar 2 Distortion)

E|-------
B|-------
G|-7-7-7-
D|-7-7-7-
A|-5-5-5-
E|-------

Interlude (Guitar 2 Distortion & Palm Muted)

E|-----------
B|-----------
G|-----------
D|---7-x-16-
A|---7-------
E|---5-------

Verse (Guitars 1 & 2 Heavy Distortion) (Play 3 times)

E|---------------------------------------------
B|---------------------------------------------
G|-----6-6-6-6-6-6-6---6-6-6-6-6-6-6---x-------
D|-----7-7-7-7-7-7-7-------------------7-x-8---
A|---------------------7-7-7-7-7-7-7---5-------
E|---------------------------------------------

Background (Guitar 1 Heavy Distortion) 

E|-------
B|-5-8-5-
G|-------
D|-2-5-2-
A|-------
E|-------

Interlude (Guitars 1 & 2 Heavy Distortion) (P) = Tie Note

E|-----
B|-----
G|-7---
D|-7---7--
A|-5---5--
E|-----

Chorus (Guitars 1 & 2)

E|-----------------------------------------------------------------------------------------------
B|-----------------------------------------------------------------------------------------------
G|------------7---------------------------------------------------------9-------11-------13-----
D|---7--------7-x-16------7--------7---------6-------9-------7----------x-x-9---x--x-1---x--x-4-
A|---7-x-16---5-----------7-x-16---5-x-4-----4-x-4---7-x-8---7-x-16-----7-------9--------11-----
E|---5--------------------5----------------------------------5-----------------------------------

Next Part After Chorus (Guitars 1 & 2)

E|-------------------------
B|-------------------------
G|-----7------------7------
D|-----7---x---16---7-x-16-
A|-----5------------5------
E|-------------------------

*Repeat Stave 10* Then Intro Riff

E|---
B|---
G|---
D|---
A|---
E|---

							http://www.guitartabcreator.com
Chords

Instruments
{"strings":[[[".",".",".",".",".",".",".",".",".",".",".",".","."],[".",10,".",10,".",10,".",10,".",10,".",10,10],[".",".",".",".",".",".",".",".",".",".",".",".",0],[7,".",7,".",7,".",7,".",7,".",7,".",0],[".",".",".",".",".",".",".",".",".",".",".",".","."],[".",".",".",".",".",".",".",".",".",".",".",".","."]],[[".",".","."],[".",".","."],[7,7,7],[7,7,7],[5,5,5],[".",".","."]],[["_","_","."],["_","_","."],["_",7,"p"],["_",7,"p"],["_",5,"p"],["_","_","."]],[["_",".",".",".",".",".",".",".",".",".",".",".",".",".",".",".",".",".",".",".",".",".",".",".",".",".",".",".",".",".",".",".","."],["_",".",".",10,".",".",".",10,".",".",".",10,".",".",".",10,".",".",".",10,".",".",".",10,".",".",".",10,".",".",".",10,"p"],["_",6,".",".",".",6,".",".",".",6,".",".",".",6,".",".",".",6,".",".",".",6,".",".",".",6,".",".",".",6,".",".","."],[7,".",7,".",7,".",7,".",7,".",7,".",7,".",7,".",7,".",7,".",7,".",7,".",7,".",7,".",7,".",7,".","."],["_",".",".",".",".",".",".",".",".",".",".",".",".",".",".",".",".",".",".",".",".",".",".",".",".",".",".",".",".",".",".",".","."],["_",".",".",".",".",".",".",".",".",".",".",".",".",".",".",".",".",".",".",".",".",".",".",".",".",".",".",".",".",".",".",".","."]],[["."],["."],["\\"],["\\"],["\\"],["."]],[[".",".",".",".",".",".",".",".","."],[10,".",".",9,".",".",9,".","."],["x",16,".","x",6,".","x",12,"."],[7,".",".",7,".",".",6,".","."],[".",".",".",".",".",".",".",".","."],[".",".",".",".",".",".",".",".","."]],[[".",".",".",".",".",".",".",".",".",".",".",".",".",".",".","."],[".",".",".",10,".",".",".",10,".",".",".",10,".",".",".",10],[".",6,".",".",".",6,".",".",".",6,".",".",".",6,".",0],[7,".",7,".",7,".",7,".",7,".",7,".",7,".",7,0],[".",".",".",".",".",".",".",".",".",".",".",".",".",".",".","."],[".",".",".",".",".",".",".",".",".",".",".",".",".",".",".","."]],[[".",".",".",".",".","_"],[10,".",".",".",".","_"],["x",16,".",9,".","_"],[7,".",".","x",13,"_"],[".",".",".",7,".","_"],[".",".",".",".",".","_"]],[["_","_",".",".",".",".",".",".",".",".",".",".",".",".",".",".",".",".",".","."],["_","_",".",".",10,".",".",".",10,".",".",".",10,".",10,"/",12,"\\",10,"."],["_","_",".",6,".",6,".",6,".",6,".",6,".",6,".",".",".",".",".","."],["_","_",7,".",".",".",7,".",".",".",".",".",".",".",".",".",".",".",".","."],["_","_",".",".",".",".",".",".",".",".",7,".",".",".",".",".",".",".",".","."],["_","_",".",".",".",".",".",".",".",".",".",".",".",".",".",".",".",".",".","."]],[["_",".",".",".",".",".",".",".",".",".",".",".",".",".",".",".","."],["_",10,".",".",".",".",".",".",".",".",".",".",".",".",".",".","."],["_","x",6,".",0,".",7,".",".",".",".",".",".",9,7,6,"."],["_",7,".",".",0,".","x",6,".",7,".",".",".","x","x","x","."],["_",".",".",".",".",".",5,".",".",7,"x",6,".",7,5,4,"."],["_",".",".",".",".",".",".",".",".",5,".",".",".",".",".",".","."]],[[".",".",".",".",".",".",".",".",".",".",".",".",".",".",".",".",".",".",".",".",".",".",".",".",".",".",".","."],[10,".",".",9,".",7,".",".",".",".",".",9,".",".",10,".",".",9,".",7,".",".",".",".",".",".",".","."],["x",8,".","x",".","x",".",".",".",".",".","x",7,".","x",8,".","x",".","x",".",".",".",".",".",9,7,6],[7,".",".",7,".",7,".",7,".",".",".",6,".",".",7,".",".",7,".",7,".",7,".",".",".","x","x","x"],[".",".",".",".",".",".",".",7,"x",6,".",".",".",".",".",".",".",".",".",".",".",7,"x",7,".",7,5,4],[".",".",".",".",".",".",".",5,".",".",".",".",".",".",".",".",".",".",".",".",".",5,".",".",".",".",".","."]],[[".",".",".",".",".",".",".",".",".",".",".",".","."],[".",10,".",10,".",10,".",10,".",10,".",10,10],[".",".",".",".",".",".",".",".",".",".",".",".",0],[7,".",7,".",7,".",7,".",7,".",7,".",0],[".",".",".",".",".",".",".",".",".",".",".",".","."],[".",".",".",".",".",".",".",".",".",".",".",".","."]],[[".",".","."],[".",".","."],[7,7,7],[7,7,7],[5,5,5],[".",".","."]],[[".",".","_","."],[".",".","_","."],[".",".","_","."],[".",7,"x",16],[".",7,"_","."],[".",5,"_","."]],[[".",".",".",".",".",".",".",".",".",".",".",".",".",".",".",".",".",".",".",".",".","."],[".",".",".",".",".",".",".",".",".",".",".",".",".",".",".",".",".",".",".",".",".","."],[".",".",6,6,6,6,6,6,6,".",6,6,6,6,6,6,6,".","x",".",".","."],[".",".",7,7,7,7,7,7,7,".",".",".",".",".",".",".",".",".",7,"x",8,"."],[".",".",".",".",".",".",".",".",".",".",7,7,7,7,7,7,7,".",5,".",".","."],[".",".",".",".",".",".",".",".",".",".",".",".",".",".",".",".",".",".",".",".",".","."]],[[".",".","."],[5,8,5],[".",".","."],[2,5,2],[".",".","."],[".",".","."]],[[".",".","."],[".",".","."],[7,".","p"],[7,".","p",7],[5,".","p",5],[".",".","."]],[[".",".",".",".",".",".",".",".",".","_",".",".",".",".",".",".",".",".",".",".",".",".",".",".",".",".",".",".",".",".",".",".","_",".",".",".",".",".",".",".",".",".","."],[".",".",".",".",".",".",".",".",".","_",".",".",".",".",".",".",".",".",".",".",".",".",".",".",".",".",".",".",".",".",".",".","_",".",".",".",".",".",".",".",".",".","."],[".",".",".",".",".",7,".",".",".","_",".",".",".",".",".",".",".",".",".",".",".",".",".",".",".",".",".",".",".",".",".",".",9,".",".",".",11,".",".",".",13,".","."],[".",7,".",".",".",7,"x",16,".","_",7,".",".",".",7,".",".",".",".",6,".",".",".",9,".",".",".",7,".",".",".",".","x","x",9,".","x","x",1,".","x","x",4],[".",7,"x",16,".",5,".",".",".","_",7,"x",16,".",5,"x",4,".",".",4,"x",4,".",7,"x",8,".",7,"x",16,".",".",7,".",".",".",9,".",".",".",11,".","."],[".",5,".",".",".",".",".",".",".","_",5,".",".",".",".",".",".",".",".",".",".",".",".",".",".",".",".",5,".",".",".",".","_",".",".",".",".",".",".",".",".",".","."]],[[".",".",".",".",".",".",".",".",".",".","."],[".",".",".",".",".",".",".",".",".",".","."],[".",".",7,".",".",".",".",".",7,".","."],[".",".",7,".","x",".",16,".",7,"x",16],[".",".",5,".",".",".",".",".",5,".","."],[".",".",".",".",".",".",".",".",".",".","."]],[["."],["."],["."],["."],["."],["."]]],"numberofstrings":6,"notes":["E","B","G","D","A","E"],"capo":0,"stringnotes":["E3","B2","G2","D2","A1","E1"],"comments":["Intro (Guitar 1 Distortion)","Intro (Guitar 2 Distortion)","Intro (Guitar 2 Distortion) (P) = Tie Note","Interlude (Guitar 1 Clean)","Interlude (Guitar 2 Distortion)","Chorus (Guitars 1 & 2 Heavy Distortion)","Chorus (Guitar 1 & 2 Heavy Distortion)","Chorus ( Guitars 1 & 2 Heavy Distortion)","Chorus (Guitars 1 & 2 Heavy Distortion)","Chorus (Guitars 1 & 2 Heavy Distortion)","Chorus (Guitars 1 & 2 Heavy Distortion)","Intro (Guitar 1 Distortion)","Intro (Guitar 2 Distortion)","Interlude (Guitar 2 Distortion & Palm Muted)","Verse (Guitars 1 & 2 Heavy Distortion) (Play 3 times)","Background (Guitar 1 Heavy Distortion) ","Interlude (Guitars 1 & 2 Heavy Distortion) (P) = Tie Note","Chorus (Guitars 1 & 2)","Next Part After Chorus (Guitars 1 & 2)","*Repeat Stave 10* Then Intro Riff"],"timing":[[null,null,null,null,null,null,null,null,null,null,null,null,null],[null,null,null],[null,null,null],[null,null,null,null,null,null,null,null,null,null,null,null,null,null,null,null,null,null,null,null,null,null,null,null,null,null,null,null,null,null,null,null],[],[null,null,null,null,null,null,null,null,null],[null,null,null,null,null,null,null,null,null,null,null,null,null,null,null,null,null],[null,null,null,null,null,null],[null,null,null,null,null,null,null,null,null,null,null,null,null,null,null,null,null,null,null,null],[null,null,null,null,null,null,null,null,null,null,null,null,null,null,null,null,null,null],[null,null,null,null,null,null,null,null,null,null,null,null,null,null,null,null,null,null,null,null,null,null,null,null,null,null,null,null,null],[null,null,null,null,null,null,null,null,null,null,null,null,null,null],[null,null,null,null],[null,"W",null,null,"W"],[null,"W","W","W","W","W","W","W","W",null,"W","W","W","W","W","W","W",null,null,"W","W","W","W"],[null,"W","W","W"],[null,null,null,"W","W","W"],[null,"W",null,"W",null,"W",null,"W",null,null,"W",null,"W",null,"W",null,null,"W",null,"W",null,"W",null,"W",null,"W",null,"W",null,"W","W",null,"W",null,"W",null,"W",null,"W",null,"W",null,"W"],[null,"W",null,null,"W",null,null,null,"W",null,"W"],[]],"timingvisible":false,"tabcounter":0,"stave":19,"totalstaves":20,"instrument":"6guitar","selectedtuning":"6guitar","version":"13"}

Member for

1 month 4 weeks
Submitted by Wildwolf on Sat, 2021-01-16 19:44