Sound will begin in 5 seconds

Wild Blue Yonder - Behold the I

01234567891011121314151617181920212223
E
B
G
D
A
E
B
0 1 2 3 4 5 6 7 8 9 10 11 12 13 14 15 16 17 18 19 20 21 22 23
Song Science #1: How Pros Use 6 Chords to Write Hit Songs
(/) Slide Up  (\) Slide Down  (h) Hammer On  (p) Pull Off  (b) Bend (r) Release (v) Vibrato

Stave 1:

E|-----------------------------------------------------------------------------------------------------
B|-----------------------------------------------------------------------------------------------------
G|-----------------------------------------------------------------------------------------------------
D|-----------------------------------------------------------------------------------------------------
A|-----------------------------------------------------------------------------------------------------
E|-----8-----7-----7-----8-----7-----7-----5-----5-----5-----4-----4-----5-----4-----4-----------4-----
B|-0-5---0-5---0-5---0-5---0-5---0-5---0-6---0-5---0-3---0-3---0-3---0-3---0-3---0-3---0-3-1-0-1---0-1-

Stave 2:

E|-------------------------------------
B|-------------------------------------
G|-------------------------------------
D|-------------------------------------
A|-------------------------------------
E|-----7-----5-----7-----7-----7-----5-
B|-0-5---0-5---0-5---0-5---0-5---0-5---

Stave 3:

E|-------------------------------------
B|-------------------------------------
G|-------------------------------------
D|-------------------------------------
A|-------------------------------------
E|-----7-----5-----7-----7-----7-----5-
B|-0-6---0-6---0-6---0-6---0-6---0-6---

Stave 4:

E|-------------------------------------------------------------------------------
B|-------------------------------------------------------------------------------
G|-------------------------------------------------------------------------------
D|-------------------------------------------------------------------------------
A|-------------------------------------------------------------------------------
E|-----7-----8-----7-----7-----7-----8-----------7-----8-----7-----7-----7-----8-
B|-0-5---0-5---0-5---0-5---0-5---0-5---------0-5---0-5---0-5---0-5---0-5---0-5---

Stave 5:

E|-------------------------------------------------------------------------------
B|-------------------------------------------------------------------------------
G|-------------------------------------------------------------------------------
D|-------------------------------------------------------------------------------
A|-------------------------------------------------------------------------------
E|-----7-----8-----7-----7-----7-----8-----------7-----8-----7-----7-----7-----5-
B|-0-6---0-6---0-6---0-6---0-6---0-6---------0-6---0-6---0-6---0-6---0-6---0-6---

Stave 6:

E|-------------------------------------------------------------------------
B|-------------------------------------------------------------------------
G|-------------------------------------------------------------------------
D|-------------------------------------------------------------------------
A|-------------------------------------------------------------------------
E|-----7-----7-----8-----7-----7-----5-----7-----7-----8-----7-----7-----5-
B|-0-5---0-5---0-5---0-5---0-5---0-5---0-5---0-5---0-5---0-5---0-5---0-5---

Stave 7:

E|-------------------------------------------------------------------------
B|-------------------------------------------------------------------------
G|-------------------------------------------------------------------------
D|-------------------------------------------------------------------------
A|-------------------------------------------------------------------------
E|-----7-----7-----8-----7-----7-----5-----7-----7-----8-----7-----7-----5-
B|-0-6---0-6---0-6---0-6---0-6---0-6---0-6---0-6---0-6---0-6---0-6---0-6---

Stave 8:

E|-------------------------------------------------------------------------
B|-------------------------------------------------------------------------
G|-------------------------------------------------------------------------
D|-------------------------------------------------------------------------
A|-------------------------------------------------------------------------
E|-----7-----7-----7-----5-----5-----5-----7-----7-----7-----5-----5-----5-
B|-0-5---0-5---0-5---0-5---0-5---0-5---0-5---0-5---0-5---0-5---0-5---0-5---

Stave 9:

E|-------------------------------------------------------------------------
B|-------------------------------------------------------------------------
G|-------------------------------------------------------------------------
D|-------------------------------------------------------------------------
A|-------------------------------------------------------------------------
E|-----5-----5-----5-----5-----5-----5-----4-----4-----4-----4-----4-----4-
B|-0-3---0-3---0-3---0-3---0-3---0-3---0-3---0-3---0-3---0-3---0-3---0-3---

Stave 10:

E|-------------------------------------------------------------------------
B|-------------------------------------------------------------------------
G|-------------------------------------------------------------------------
D|-------------------------------------------------------------------------
A|-------------------------------------------------------------------------
E|-----7-----7-----7-----5-----5-----5-----7-----7-----8-----5-----5-----5-
B|-0-5---0-5---0-5---0-5---0-5---0-5---0-5---0-5---0-5---0-5---0-5---0-5---

Stave 11:

E|-----------------------------
B|-----------------------------
G|-----------------------------
D|-----------------------------
A|-----------------------------
E|-----4-----------------4-----
B|-0-3---0-3-------0-3-0---0-3-

Stave 12:

E|-----------------------------
B|-----------------------------
G|-----------------------------
D|-----------------------------
A|-----------------------------
E|-----5-----------------5-----
B|-0-3---0-3-------0-3-0---0-3-

Stave 13:

E|-------------------------------------------------------------------------------------------------
B|-------------------------------------------------------------------------------------------------
G|-------------------------------------------------------------------------------------------------
D|-------------------------------------------------------------------------------------------------
A|-------------------------------------------------------------------------------------------------
E|-----5-----4-----4-----4-----4-----4-----5-----4-----------1-----------1-----------1-----------1-
B|-0-3---0-3---0-3---0-3---0-3---0-3---0-3---0-3---0-3-1-0-1---1-0-1-0-1---1-0-1-0-1---1-0-1-0-1---

http://www.guitartabcreator.com
Guitar Tab Creator is intended to store guitar tab created through the tool. It currently does not support in-line text editing. Any text you place in here will be lost. If you need to comment on your tab, please use the "Tab Notes" section located below.