Curtis Lowe

Chords

01234567891011121314151617181920212223
E
B
G
D
A
E
B
0 1 2 3 4 5 6 7 8 9 10 11 12 13 14 15 16 17 18 19 20 21 22 23
(/) Slide Up  (\) Slide Down  (h) Hammer On  (p) Pull Off  (b) Bend (r) Release (v) Vibrato

Stave 1:

E|-----------------------------------------------------
B|--9--9\7-----7-----------5-----0/9--7-----------5/9--
G|----------9--------4--6-----6----------9-------------
D|-----------------------------------------------------
A|-----------------------------------------------------
E|-----------------------------------------------------

Stave 2:

E|---------------------------------------------------------------------------------------
B|------------------------------\-------------------------------7-9-----/14-----14-9-----
G|-------------------------------8--8\6--4----------------------7/9------14-----14\9-----
D|-------------7--6\4--2--------------------------7--6\4--2------------------------------
A|--4\2----------------------------------------------------------------------------------
E|---------------------------------------------------------------------------------------

Stave 3:

E|-----9--7---------------------------------9--12--9-------------------------------------------------------------
B|--9--------9--9\7----------------------9------------9\7---------------------------7-9-----5-7-----1-2-----5-9--
G|-----------------/9-----6\4--------------------------/9-----6--4----------------7/9-----5/7-----1/2-----5/9--
D|-------------------------------6\4--2-------------------------------6\4--2/4v----------------------------------
A|---------------------------------------------------------------------------------------------------------------
E|---------------------------------------------------------------------------------------------------------------

Stave 4:

E|----------------------------------------9--7-----------------------------------------------------------------
B|--9--9\7-----7--7--------7--------7--9--------9\7---------------------------------7-9------------------9--9--
G|----------9--------7--------7----------------------9-----7\6--4-------------------7/9--7\6--4-----5-7--9--9--
D|----------------------7--------7------------------------------------7--6\4--2---------------------5/7--9--9--
A|-------------------------------------------------------------------------------------------------------------
E|-------------------------------------------------------------------------------------------------------------

Stave 5:

E|-----7---------------------------------------------------------------------------------------------------------------
B|--9-----9--9/12-----10--9\7--------7-9-----------------------------9-14-----14-9--9--7--------9-14--17--15--14--7-9--
G|-----------------------------9-----7/9--7\6--4-----5-7-----7-9-----9/14-----14\9--------9-----9/14--------------7/9--
D|---------------------------------------------------5/7-----7/9-------------------------------------------------------
A|---------------------------------------------------------------------------------------------------------------------
E|---------------------------------------------------------------------------------------------------------------------

Stave 6:

E|------12------12----------------------------------------------------------------------------------------7-------------
B|--12------12------10--9\7------------------------------6-7\6-----7-9--5-7--1-2--5-9-----7/9--9\7-----7-----9--8\7-----
G|---------------------------9-----7\6--4----------------6/7-6-----7/9--5/7--1/2--5/9---------------9----------------9--
D|-----------------------------------------7--6\4--2--4-----------------------------------------------------------------
A|----------------------------------------------------------------------------------------------------------------------
E|----------------------------------------------------------------------------------------------------------------------

Stave 7:

E|-----7--9--12-----/16--14-----/16-----14\12---------------------------------------------------------------
B|--9------------------------------------------14--12--10\9-------------------------------------------------
G|-----------------------------------------------------------9--------/6\4----------------------------------
D|------------------------------------------------------------------------\6--4--2--------/6/6/6/6/6--4-----
A|----------------------------------------------------------------------------------------------------------
E|----------------------------------------------------------------------------------------------------------

Stave 8:

E|-------------------------------------------------------------------------7--12--14/16--14-------------------------------
B|----------------------------------------------------------------------9--------------------12--7/9----------------2/14--
G|----------------------6/9--11/13--11/13--11--11/13--11--9--6-------9--------------------------------9--6--4-------2-14--
D|--6\4--2------------------------------------------------------6\4--------------------------------------------6\4--2-14--
A|----------4--2----------------------------------------------------------------------------------------------------------
E|----------------3--0----------------------------------------------------------------------------------------------------

Stave 9:

E|-------------------------------------------------------------------------------------------7--12----------------9--7----------
B|----9-----10\9-----------9-14-----14-9-----14--12----------------7-14---------//---7/9--7---------14--12-----9--------9\7-----
G|----9-----------9--------9-14-----14-9-------------13--11--9-----7/14-------9/---------------------------------------------9--
D|---\9--------------9-----9/14-----14\9------------------------9--------7/9----------------------------------------------------
A|------------------------------------------------------------------------------------------------------------------------------
E|------------------------------------------------------------------------------------------------------------------------------

Stave 10:

E|----------------------------------------------------------------------7-----------------------------------
B|-------------------------------------------7/9----------------6/7--9-----9-----8/9--6/7-------------------
G|--6--4-------------------------------------7-9-----7\6--4-----6-7--------------8-9--6-7-----6--4----------
D|--------7--6\4--2-----2---------------------------------------------------------------------------6\4--2--
A|-------------------------4--2-----------------------------------------------------------------------------
E|-------------------------------3--0-----------------------------------------------------------------------

Stave 11:

E|----------------------------------------------------------------------------17--16\14--12------------------
B|--7/9-----------------------------9/14-----14\9--9--7--------9/14--16\9--------------------17--16--14--12--
G|--7-9--7\6--4-----5/7-----7/9-----9-14-----14-9--------9-----9-14--16-9------------------------------------
D|------------------5-7-----7-9------------------------------------------------------------------------------
A|-----------------------------------------------------------------------------------------------------------
E|-----------------------------------------------------------------------------------------------------------

Stave 12:

E|------------------7--14--7-----------------------------------------------------------------
B|--12/14--14\9---------------9-----7-9--5/7--1/2--7-9/9--9--7-----7--7--------7--------7-9--
G|--12-14--14-9------------------9--7/9--5-7--1-2--7/9----------9--------7--------7-----7/9--
D|--------------------------------------------------------------------------7--------7-------
A|-------------------------------------------------------------------------------------------
E|-------------------------------------------------------------------------------------------

Stave 13:

E|-------------------------------------
B|--5/7--7-9----------3/9-----12--7/9--
G|--5-7--7/9--5/7-----3-9--------------
D|------------5-7----------------------
A|-------------------------------------
E|-------------------------------------

							http://www.guitartabcreator.com
Instruments
{"strings":[[[".",".",".",".",".","_","_",".",".",".",".",".",".",".",".",".","_","_",".",".","."],[9,9,"\\",7,".",7,"_",".",".",5,".",0,"/",9,7,".","_","_",5,"/",9],[".",".",".",".",9,"_","_",4,6,".",6,".",".",".",".",9,"_","_",".",".","."],[".",".",".",".",".","_","_",".",".",".",".",".",".",".",".",".","_","_",".",".","."],[".",".",".",".",".","_","_",".",".",".",".",".",".",".",".",".","_","_",".",".","."],[".",".",".",".",".","_","_",".",".",".",".",".",".",".",".",".","_","_",".",".","."]],[[".",".",".","_","_",".",".",".",".",".","_","_",".",".",".",".",".",".","_","_",".",".",".",".",".","_",".",".",".","_",".",".","_",".",".",".","_"],[".",".",".","_","_",".",".",".",".",".","_","_","\\",".",".",".",".",".","_","_",".",".",".",".",".","_",7,".",9,"_","/",14,"_",14,".",9,"_"],[".",".",".","_","_",".",".",".",".",".","_","_",".",8,8,"\\",6,4,"_","_",".",".",".",".",".","_",7,"/",9,"_",".",14,"_",14,"\\",9,"_"],[".",".",".","_","_",7,6,"\\",4,2,"_","_",".",".",".",".",".",".","_","_",7,6,"\\",4,2,"_",".",".",".","_",".",".","_",".",".",".","_"],[4,"\\",2,"_","_",".",".",".",".",".","_","_",".",".",".",".",".",".","_","_",".",".",".",".",".","_",".",".",".","_",".",".","_",".",".",".","_"],[".",".",".","_","_",".",".",".",".",".","_","_",".",".",".",".",".",".","_","_",".",".",".",".",".","_",".",".",".","_",".",".","_",".",".",".","_"]],[[".",9,7,".",".",".",".",".",".","_","_",".",".",".",".",".",".","_",9,12,9,".",".",".",".",".","_",".",".",".",".",".",".",".",".",".","_",".",".",".","_",".",".",".","_",".",".",".","_",".",".","."],[9,".",".",9,9,"\\",7,".",".","_","_",".",".",".",".",".",".",9,".",".",".",9,"\\",7,".",".","_",".",".",".",".",".",".",".",".",".","_",7,".",9,"_",5,".",7,"_",1,".",2,"_",5,".",9],[".",".",".",".",".",".",".","/",9,"_",6,"\\",4,".",".",".",".","_",".",".",".",".",".",".","/",9,"_",6,4,".",".",".",".",".",".",".","_",7,"/",9,"_",5,"/",7,"_",1,"/",2,"_",5,"/",9],[".",".",".",".",".",".",".",".",".","_","_",".",".",6,"\\",4,2,"_",".",".",".",".",".",".",".",".","_",".",".",6,"\\",4,2,"/",4,"v","_",".",".",".","_",".",".",".","_",".",".",".","_",".",".","."],[".",".",".",".",".",".",".",".",".","_","_",".",".",".",".",".",".","_",".",".",".",".",".",".",".",".","_",".",".",".",".",".",".",".",".",".","_",".",".",".","_",".",".",".","_",".",".",".","_",".",".","."],[".",".",".",".",".",".",".",".",".","_","_",".",".",".",".",".",".","_",".",".",".",".",".",".",".",".","_",".",".",".",".",".",".",".",".",".","_",".",".",".","_",".",".",".","_",".",".",".","_",".",".","."]],[[".",".",".",".",".",".",".",".",".",".",".",".",".",".",9,7,".",".",".",".","_",".",".",".",".","_",".",".",".",".",".","_",".",".",".",".",".",".",".","_",".",".",".",".","."],[9,9,"\\",7,".",7,7,".",".",7,".",".",7,9,".",".",9,"\\",7,".","_",".",".",".",".","_",".",".",".",".",".","_",7,".",9,".",".",".",".","_",".",".",".",9,9],[".",".",".",".",9,".",".",7,".",".",7,".",".",".",".",".",".",".",".",9,"_",7,"\\",6,4,"_",".",".",".",".",".","_",7,"/",9,7,"\\",6,4,"_",5,".",7,9,9],[".",".",".",".",".",".",".",".",7,".",".",7,".",".",".",".",".",".",".",".","_",".",".",".",".","_",7,6,"\\",4,2,"_",".",".",".",".",".",".",".","_",5,"/",7,9,9],[".",".",".",".",".",".",".",".",".",".",".",".",".",".",".",".",".",".",".",".","_",".",".",".",".","_",".",".",".",".",".","_",".",".",".",".",".",".",".","_",".",".",".",".","."],[".",".",".",".",".",".",".",".",".",".",".",".",".",".",".",".",".",".",".",".","_",".",".",".",".","_",".",".",".",".",".","_",".",".",".",".",".",".",".","_",".",".",".",".","."]],[[".",7,".",".",".",".",".",".",".",".",".",".","_",".",".",".",".",".",".",".","_",".",".",".","_",".",".",".","_",".",".",".","_",".",".",".",".",".",".","_",".",".",".",".",".",".",".",".","."],[9,".",9,9,"/",12,".",10,9,"\\",7,".","_",7,".",9,".",".",".",".","_",".",".",".","_",".",".",".","_",9,".",14,"_",14,".",9,9,7,".","_",9,".",14,17,15,14,7,".",9],[".",".",".",".",".",".",".",".",".",".",".",9,"_",7,"/",9,7,"\\",6,4,"_",5,".",7,"_",7,".",9,"_",9,"/",14,"_",14,"\\",9,".",".",9,"_",9,"/",14,".",".",".",7,"/",9],[".",".",".",".",".",".",".",".",".",".",".",".","_",".",".",".",".",".",".",".","_",5,"/",7,"_",7,"/",9,"_",".",".",".","_",".",".",".",".",".",".","_",".",".",".",".",".",".",".",".","."],[".",".",".",".",".",".",".",".",".",".",".",".","_",".",".",".",".",".",".",".","_",".",".",".","_",".",".",".","_",".",".",".","_",".",".",".",".",".",".","_",".",".",".",".",".",".",".",".","."],[".",".",".",".",".",".",".",".",".",".",".",".","_",".",".",".",".",".",".",".","_",".",".",".","_",".",".",".","_",".",".",".","_",".",".",".",".",".",".","_",".",".",".",".",".",".",".",".","."]],[[".",12,".",12,".",".",".",".",".","_",".",".",".",".",".",".",".",".",".","_",".",".",".",".",".","_",".",".",".",".",".",".",".",".",".",".",".",".","_",".",".",".",".",".",".",".",".",7,".",".",".",".","."],[12,".",12,".",10,9,"\\",7,".","_",".",".",".",".",".",".",".",".",".","_",6,".",7,"\\",6,"_",7,".",9,5,".",7,1,".",2,5,".",9,"_",7,"/",9,9,"\\",7,".",7,".",9,8,"\\",7,"."],[".",".",".",".",".",".",".",".",9,"_",7,"\\",6,4,".",".",".",".",".","_",6,"/",7,".",6,"_",7,"/",9,5,"/",7,1,"/",2,5,"/",9,"_",".",".",".",".",".",".",9,".",".",".",".",".",".",9],[".",".",".",".",".",".",".",".",".","_",".",".",".",".",7,6,"\\",4,2,4,".",".",".",".",".","_",".",".",".",".",".",".",".",".",".",".",".",".","_",".",".",".",".",".",".",".",".",".",".",".",".",".","."],[".",".",".",".",".",".",".",".",".","_",".",".",".",".",".",".",".",".",".","_",".",".",".",".",".","_",".",".",".",".",".",".",".",".",".",".",".",".","_",".",".",".",".",".",".",".",".",".",".",".",".",".","."],[".",".",".",".",".",".",".",".",".","_",".",".",".",".",".",".",".",".",".","_",".",".",".",".",".","_",".",".",".",".",".",".",".",".",".",".",".",".","_",".",".",".",".",".",".",".",".",".",".",".",".",".","."]],[[".",7,9,12,"_","/",16,14,"_","/",16,"_",14,"\\",12,".",".",".",".",".",".","_","_",".",".",".",".",".",".",".",".","_","_",".",".",".",".",".",".",".",".",".",".",".","_"],[9,".",".",".","_",".",".",".","_",".",".","_",".",".",".",14,12,10,"\\",9,".","_","_",".",".",".",".",".",".",".",".","_","_",".",".",".",".",".",".",".",".",".",".",".","_"],[".",".",".",".","_",".",".",".","_",".",".","_",".",".",".",".",".",".",".",".",9,"_","_","/",6,"\\",4,".",".",".",".","_","_",".",".",".",".",".",".",".",".",".",".",".","_"],[".",".",".",".","_",".",".",".","_",".",".","_",".",".",".",".",".",".",".",".",".","_","_",".",".",".",".","\\",6,4,2,"_","_","/",6,"/",6,"/",6,"/",6,"/",6,4,"_"],[".",".",".",".","_",".",".",".","_",".",".","_",".",".",".",".",".",".",".",".",".","_","_",".",".",".",".",".",".",".",".","_","_",".",".",".",".",".",".",".",".",".",".",".","_"],[".",".",".",".","_",".",".",".","_",".",".","_",".",".",".",".",".",".",".",".",".","_","_",".",".",".",".",".",".",".",".","_","_",".",".",".",".",".",".",".",".",".",".",".","_"]],[[".",".",".",".",".",".",".",".",".",".",".",".",".",".",".",".",".",".",".",".",".",".",".",".",".",".",".",".","_",7,12,14,"/",16,14,".",".",".",".",".",".",".",".",".",".",".",".","."],[".",".",".",".",".",".",".",".",".",".",".",".",".",".",".",".",".",".",".",".",".",".",".",".",".",".",".",".",9,".",".",".",".",".",".",12,7,"/",9,".",".",".",".",".",".",2,"/",14],[".",".",".",".",".",".",".",".",6,"/",9,11,"/",13,11,"/",13,11,11,"/",13,11,9,6,".",".",".",9,"_",".",".",".",".",".",".",".",".",".",".",9,6,4,".",".",".",2,".",14],[6,"\\",4,2,".",".",".",".",".",".",".",".",".",".",".",".",".",".",".",".",".",".",".",".",6,"\\",4,".","_",".",".",".",".",".",".",".",".",".",".",".",".",".",6,"\\",4,2,".",14],[".",".",".",".",4,2,".",".",".",".",".",".",".",".",".",".",".",".",".",".",".",".",".",".",".",".",".",".","_",".",".",".",".",".",".",".",".",".",".",".",".",".",".",".",".",".",".","."],[".",".",".",".",".",".",3,0,".",".",".",".",".",".",".",".",".",".",".",".",".",".",".",".",".",".",".",".","_",".",".",".",".",".",".",".",".",".",".",".",".",".",".",".",".",".",".","."]],[[".",".",".","_",".",".",".",".",".","_",".",".",".","_",".",".",".","_",".",".",".",".",".",".",".",".",".",".",".",".",".",".",".",".",".",".",".",".",".",7,12,".",".","_",".",9,7,".",".",".","."],[".",".",9,"_",10,"\\",9,".",".","_",9,".",14,"_",14,".",9,"_",14,12,".",".",".",".",7,".",14,".",".",".",".",".","/","/",".",7,"/",9,7,".",".",14,12,"_",9,".",".",9,"\\",7,"."],[".",".",9,"_",".",".",".",9,".","_",9,".",14,"_",14,".",9,"_",".",".",13,11,9,".",7,"/",14,".",".",".",9,"/",".",".",".",".",".",".",".",".",".",".",".","_",".",".",".",".",".",".",9],[".","\\",9,"_",".",".",".",".",9,"_",9,"/",14,"_",14,"\\",9,"_",".",".",".",".",".",9,".",".",".",7,"/",9,".",".",".",".",".",".",".",".",".",".",".",".",".","_",".",".",".",".",".",".","."],[".",".",".","_",".",".",".",".",".","_",".",".",".","_",".",".",".","_",".",".",".",".",".",".",".",".",".",".",".",".",".",".",".",".",".",".",".",".",".",".",".",".",".","_",".",".",".",".",".",".","."],[".",".",".","_",".",".",".",".",".","_",".",".",".","_",".",".",".","_",".",".",".",".",".",".",".",".",".",".",".",".",".",".",".",".",".",".",".",".",".",".",".",".",".","_",".",".",".",".",".",".","."]],[[".",".",".",".",".",".",".","_",".",".",".","_","_","_","_",".",".",".","_",".",".",".",".","_",".",".",".",".",7,".","_",".",".",".",".",".",".","_",".",".",".",".",".","."],[".",".",".",".",".",".",".","_",".",".",".","_","_","_","_",7,"/",9,"_",".",".",".",".","_",6,"/",7,9,".",9,"_",8,"/",9,6,"/",7,"_",".",".",".",".",".","."],[6,4,".",".",".",".",".","_",".",".",".","_","_","_","_",7,".",9,"_",7,"\\",6,4,"_",6,".",7,".",".",".","_",8,".",9,6,".",7,"_",6,4,".",".",".","."],[".",".",7,6,"\\",4,2,"_",2,".",".","_","_","_","_",".",".",".","_",".",".",".",".","_",".",".",".",".",".",".","_",".",".",".",".",".",".","_",".",".",6,"\\",4,2],[".",".",".",".",".",".",".","_",".",4,2,"_","_","_","_",".",".",".","_",".",".",".",".","_",".",".",".",".",".",".","_",".",".",".",".",".",".","_",".",".",".",".",".","."],[".",".",".",".",".",".",".","_",".",".",".",3,0,"_","_",".",".",".","_",".",".",".",".","_",".",".",".",".",".",".","_",".",".",".",".",".",".","_",".",".",".",".",".","."]],[[".",".",".",".",".",".",".","_",".",".",".","_",".",".",".","_",".",".",".","_",".",".",".",".",".",".","_",".",".",".",".",".",".","_",17,16,"\\",14,12,".",".",".","."],[7,"/",9,".",".",".",".","_",".",".",".","_",".",".",".","_",9,"/",14,"_",14,"\\",9,9,7,".","_",9,"/",14,16,"\\",9,"_",".",".",".",".",".",17,16,14,12],[7,".",9,7,"\\",6,4,"_",5,"/",7,"_",7,"/",9,"_",9,".",14,"_",14,".",9,".",".",9,"_",9,".",14,16,".",9,"_",".",".",".",".",".",".",".",".","."],[".",".",".",".",".",".",".","_",5,".",7,"_",7,".",9,"_",".",".",".","_",".",".",".",".",".",".","_",".",".",".",".",".",".","_",".",".",".",".",".",".",".",".","."],[".",".",".",".",".",".",".","_",".",".",".","_",".",".",".","_",".",".",".","_",".",".",".",".",".",".","_",".",".",".",".",".",".","_",".",".",".",".",".",".",".",".","."],[".",".",".",".",".",".",".","_",".",".",".","_",".",".",".","_",".",".",".","_",".",".",".",".",".",".","_",".",".",".",".",".",".","_",".",".",".",".",".",".",".",".","."]],[[".",".",".",".",".",".","_",7,14,7,".",".",".",".",".",".",".",".",".",".",".",".",".",".",".",".",".",".",".",".",".",".",".",".",".",".",".",".","."],[12,"/",14,14,"\\",9,"_",".",".",".",9,".",7,".",9,5,"/",7,1,"/",2,7,".",9,"/",9,9,7,".",7,7,".",".",7,".",".",7,".",9],[12,".",14,14,".",9,"_",".",".",".",".",9,7,"/",9,5,".",7,1,".",2,7,"/",9,".",".",".",".",9,".",".",7,".",".",7,".",7,"/",9],[".",".",".",".",".",".","_",".",".",".",".",".",".",".",".",".",".",".",".",".",".",".",".",".",".",".",".",".",".",".",".",".",7,".",".",7,".",".","."],[".",".",".",".",".",".","_",".",".",".",".",".",".",".",".",".",".",".",".",".",".",".",".",".",".",".",".",".",".",".",".",".",".",".",".",".",".",".","."],[".",".",".",".",".",".","_",".",".",".",".",".",".",".",".",".",".",".",".",".",".",".",".",".",".",".",".",".",".",".",".",".",".",".",".",".",".",".","."]],[[".",".",".",".",".",".",".",".",".","_",".",".",".","_",".",".",".","."],[5,"/",7,7,".",9,".",".",".","_",3,"/",9,"_",12,7,"/",9],[5,".",7,7,"/",9,5,"/",7,"_",3,".",9,"_",".",".",".","."],[".",".",".",".",".",".",5,".",7,"_",".",".",".","_",".",".",".","."],[".",".",".",".",".",".",".",".",".","_",".",".",".","_",".",".",".","."],[".",".",".",".",".",".",".",".",".","_",".",".",".","_",".",".",".","."]]],"numberofstrings":6,"notes":["E","B","G","D","A","E","B"],"capo":0,"stringnotes":["E4","B3","G3","D3","A2","E2"],"comments":["Stave 1:","Stave 2:","Stave 3:","Stave 4:","Stave 5:","Stave 6:","Stave 7:","Stave 8:","Stave 9:","Stave 10:","Stave 11:","Stave 12:","Stave 13:"],"timing":[["W","W",null,"W","W",null,null,"W","W","W","W","W",null,"W","W","W",null,null,"W",null,"W",null,null,null,"W"],["W",null,"W",null,null,"W","W",null,"W","W","W",null,"W","W",null,"W","W",null,null,"W","W",null,"W","W",null,"W",null,"W",null,null,"W",null,"W",null,"W",null,"W",null,"W"],["W","W","W","W","W",null,"W","W","W","W","W","W","W","W","W","W","W","W","W","W","W","W",null,"W","W",null,"W","W","W",null,"W","W",null,"W",null,null,"W",null,"W",null,"W",null,"W",null,"W",null,"W",null,"W",null,"W"],["W","W",null,"W","W","W","W","W","W","W","W","W","W","W","W","W",null,"W","W",null,"W",null,"W","W",null,"W","W",null,"W","W",null,"W",null,"W","W",null,"W","W",null,"W",null,"W","W","W",null,null,null,null,null,null,null,null,"W"],["W","W","W","W",null,"W","W","W",null,"W","W",null,"W",null,"W","W",null,"W","W",null,"W",null,"W",null,"W",null,"W",null,"W",null,"W",null,"W",null,"W","W","W","W",null,"W",null,"W","W","W","W","W",null,"W"],["W","W","W","W","W","W",null,"W","W",null,"W","W","W","W","W","W",null,"W",null,"W",null,"W",null,"W","W","W","W",null,"W","W",null,"W","W",null,"W",null,"W",null,"W","W",null,"W","W","W","W","W",null,"W","W"],["W","W","W","W",null,null,"W","W",null,"W","W",null,"W",null,"W",null,"W","W","W","W","W","W","W","W","W","W",null,"W",null,"W","W","W",null,"W","W",null,null,null,"W",null,"W",null,"W",null,"W",null,"W","W",null,"W"],["W",null,"W","W","W","W","W",null,"W","W",null,"W","W",null,"W","W","W",null,"W","W","W","W",null,"W","W","W","W","W","W","W",null,"W","W","W","W","W","W","W","W","W","W",null,"W","W","W",null,"W"],["W","W","W","W","W",null,"W","W","W",null,"W",null,"W",null,"W","W","W",null,"W","W","W","W","W","W","W",null,"W","W",null,"W","W",null,"W","W",null,"W",null,"W","W","W",null,"W","W","W","W",null,"W","W"],["W","W","W","W","W","W",null,"W","W","W","W","W",null,"W","W","W","W","W","W","W",null,"W","W",null,"W",null,"W","W","W","W",null,"W",null,"W","W",null,"W",null,"W","W","W",null,"W","W"],["W",null,"W","W",null,"W","W",null,"W",null,"W",null,"W",null,"W",null,"W",null,"W",null,"W",null,"W","W","W","W",null,"W",null,"W","W",null,"W",null,"W","W",null,"W","W","W","W","W","W"],["W",null,"W","W",null,"W",null,"W","W","W","W","W","W",null,"W","W",null,"W","W",null,"W","W",null,"W",null,"W","W","W","W","W","W","W","W","W","W","W","W",null,"W"],["W",null,"W","W",null,"W","W",null,"W",null,"W",null,"W",null,"W","W",null,"W"]],"timingvisible":false,"tabcounter":18,"stave":12,"totalstaves":13,"instrument":"6guitar","selectedtuning":"6_standard","version":"13"}

Member for

1 month 1 week
Submitted by wilbur on Mon, 2020-09-21 17:05