Sound will begin in 5 seconds

untitled 2

Chords
01234567891011121314151617181920212223
E
B
G
D
A
E
B
0 1 2 3 4 5 6 7 8 9 10 11 12 13 14 15 16 17 18 19 20 21 22 23
(/) Slide Up  (\) Slide Down  (h) Hammer On  (p) Pull Off  (b) Bend (r) Release (v) Vibrato

Capo Fret 1

Stave 1:

E|--------------------------------------------------------------------------------------------
B|-----0-----3p0-------0--------0-----0---------3-----0-----3p0----------0-----0-----3-----3--
G|-----0----------0h2-----0-----0-----0--0h2h4--------0----------0h2-----0-----0-----0-----0--
D|--------------------------------------------------------------------0-----0-----2-----2-----
A|--3-----3------------------3-----3---------------3-----3------------------------------------
E|--------------------------------------------------------------------------------------------

Stave 2:

E|----------------------------------------------------------------------------------------------
B|-----0------------3-----5-----3--------------------0------------3-----8-----7-----5-----3-----
G|-----0-----0h2h4-----0-----0-----0--4-----2--------0-----0h2h4-----0-----0-----0-----0-----0--
D|---------------------------------------5-----0------------------------------------------------
A|----------------------------------------------------------------------------------------------
E|--0-----0---------------------------------------0-----0---------------------------------------

http://www.guitartabcreator.com
Guitar Tab Creator is intended to store guitar tab created through the tool. It currently does not support in-line text editing. Any text you place in here will be lost. If you need to comment on your tab, please use the "Tab Notes" section located below.