Sound will begin in 5 seconds

Untitled

Chords
01234567891011121314151617181920212223
E
B
G
D
A
E
B
0 1 2 3 4 5 6 7 8 9 10 11 12 13 14 15 16 17 18 19 20 21 22 23
(/) Slide Up  (\) Slide Down  (h) Hammer On  (p) Pull Off  (b) Bend (r) Release (v) Vibrato

Stave 1:

E|--------------------------------------------------------------------------------
B|-----3--------------0--3/5------------------3--------------0--3/5---------------
G|--0------------0h2----------4\2--0-------0------------0h2----------4\2--0--4/2--
D|----------0h2-----------------------2p0----------0h2----------------------------
A|--3--2h3---------------------------------3--2h3---------------------------------
E|-----------------------0--------------------------------------0-----------------

Stave 2:

E|-----------------------------------------------------------------------------
B|-----3--------------0--3/5--------------------3--------------0--3/5----------
G|--0------------0h2----------4\2--0h2p0-----0------------0h2----------4\2-----
D|----------0h2---------------------------0----------0h2--------------------0--
A|--3--2h3-----------------------------------3--2h3----------------------------
E|-----------------------0----------------------------------------0------------

Stave 3:

E|--0--3p2-----0--3p2--------7p5--3p2-------0--0--3p2-----0--3p2--------7p5--3p2---------0--
B|--0-------3--0-------3---------------3p0-----0-------3--0-------3---------------0h3p0-----
G|--0----------0-------------------------------0----------0---------------------------------
D|--2----------2----------7--------------------2----------2----------7----------------------
A|--3----------3----------5--------------------3----------3----------5----------------------
E|------------------------7------------------------------------------7----------------------

Stave 4:

E|--0--3p2-----0--3p2--------7p5--3p2-------0--0--3p2-----0--3p2--------------------
B|--0-------3--0-------3---------------3p0-----0-------3--0-------3-----------------
G|--0----------0-------------------------------0----------0-------------------------
D|--2----------2----------7--------------------2----------2----------7--7--7--7--7--
A|--3----------3----------5--------------------3----------3----------5--5--5--5--5--
E|------------------------7------------------------------------------7--7--7--7--7--

Stave 5:

E|-------------------------------------------------------------------------------------
B|-------------------------------------------------------------------------------------
G|--7--7--7--7---------------------------7-----------7-------------7----------0--------
D|--5--5--5--5--5-7--7--7--7----------5-----------5-------------5--------9p7--------0--
A|--7--7--7--7--3-5--5--5--5-----5h7-----------7-----------5h7-------------------7-----
E|--------------5-7--7--7--7--0-------------0-----------0-------------7----------------

Stave 6:

E|----------------------------------------------------------------------------------------
B|---------------------------------------------------------------------0------------0-----
G|-------------7-----------7-------------7------------------------0h2----------0h2-----0--
D|----------5-----------5-------------5-------------0-----0--0h2----------0h2-------------
A|-----5h7-----------7-----------5h7-----------9p7-----7-----3------------3---------------
E|--0-------------0-----------0-------------7---------------------------------------------

Stave 7:

E|--
B|--
G|--
D|--
A|--
E|--

http://www.guitartabcreator.com
Guitar Tab Creator is intended to store guitar tab created through the tool. It currently does not support in-line text editing. Any text you place in here will be lost. If you need to comment on your tab, please use the "Tab Notes" section located below.