Freudian Slip

01234567891011121314151617181920212223
E
B
G
D
A
E
B
0 1 2 3 4 5 6 7 8 9 10 11 12 13 14 15 16 17 18 19 20 21 22 23
(/) Slide Up  (\) Slide Down  (h) Hammer On  (p) Pull Off  (b) Bend (r) Release (v) Vibrato

Stave 1:

E|--------------------------------------------------------
B|--------------------------------------------------------
G|--------------------------------------------------------
D|-----------------------------------------------x--4-----
A|--------------------------------------------------------
E|--4v-----4v-----4v-----4v-----4/11--11v-----------------

Stave 2:

E|-----------------------------------------------------------------
B|-----------------------------------------------------------------
G|--------------------------------------------------------x--4-----
D|--------------4-----3--------------------3--4--3--1--------------
A|--------4--------------------------4-----------------------------
E|--4--4-----4-----4-----4-----4--4-----4--------------------------

Stave 3:

E|------------------------------------------------------------------------------------------
B|------------------------------------------------------------------------------------------
G|------------------------------------------------------------------------------------------
D|---------------------------------------------------------------------------------x--3-----
A|-------2----------------------------------------2-----------------------------------------
E|--2/4-----4--2--2-----2--2--4--6--6--6-----2/4-----4--2--2-----2--2--4--7--7--7-----------

Stave 4:

E|----------------------------------------
B|----------------------------------------
G|----------------------------------------
D|----------------------------------------
A|-------2--------------------------------
E|--2/4-----4--2--2-----2--2--4--6--7-----

Stave 5:

E|-----------------------------------------------------------
B|-----------------------------------------------------------
G|--3v-----3v--------3v--------3v-----------10v--------------
D|--------------------------------------------------x--3-----
A|-----------------------------------------------------------
E|------4---------4---------4---------4/11-------------------

Stave 6:

E|-----------------------------------------------------------
B|------------------------------------------9------10--------
G|--3v--------3v-----3v--------3v-----------11b13--12b14-----
D|-----------------------------------------------------------
A|-----------------------------------------------------------
E|------4---------4---------4---------4----------------------

Stave 7:

E|--
B|--
G|--
D|--
A|--
E|--

							http://www.guitartabcreator.com
Chords

Tab Notes
Chorus repeats the first stave
Instruments
{"strings":[[[".",".",".",".",".",".",".",".",".",".",".",".",".",".",".",".",".",".",".",".",".","."],[".",".",".",".",".",".",".",".",".",".",".",".",".",".",".",".",".",".",".",".",".","."],[".",".",".",".",".",".",".",".",".",".",".",".",".",".",".",".",".",".",".",".",".","."],[".",".",".",".",".",".",".",".",".",".",".",".",".",".",".",".",".",".",".","x",4,"."],[".",".",".",".",".",".",".",".",".",".",".",".",".",".",".",".",".",".",".",".",".","."],[4,"v",".",4,"v",".",4,"v",".",4,"v",".",4,"/",11,11,"v",".",".",".",".","."]],[[".",".",".",".",".",".",".",".",".",".",".",".",".",".",".",".",".",".",".",".","."],[".",".",".",".",".",".",".",".",".",".",".",".",".",".",".",".",".",".",".",".","."],[".",".",".",".",".",".",".",".",".",".",".",".",".",".",".",".",".",".","x",4,"."],[".",".",".",".",4,".",3,".",".",".",".",".",".",3,4,3,1,".",".",".","."],[".",".",4,".",".",".",".",".",".",".",".",4,".",".",".",".",".",".",".",".","."],[4,4,".",4,".",4,".",4,".",4,4,".",4,".",".",".",".",".",".",".","."]],[[".",".",".",".",".",".",".",".",".",".",".",".",".",".",".",".",".",".",".",".",".",".",".",".",".",".",".",".",".",".",".","."],[".",".",".",".",".",".",".",".",".",".",".",".",".",".",".",".",".",".",".",".",".",".",".",".",".",".",".",".",".",".",".","."],[".",".",".",".",".",".",".",".",".",".",".",".",".",".",".",".",".",".",".",".",".",".",".",".",".",".",".",".",".",".",".","."],[".",".",".",".",".",".",".",".",".",".",".",".",".",".",".",".",".",".",".",".",".",".",".",".",".",".",".",".",".","x",3,"."],[".",".",".",2,".",".",".",".",".",".",".",".",".",".",".",".",".",".",2,".",".",".",".",".",".",".",".",".",".",".",".","."],[2,"/",4,".",4,2,2,".",2,2,4,6,6,6,".",2,"/",4,".",4,2,2,".",2,2,4,7,7,7,".",".","."]],[[".",".",".",".",".",".",".",".",".",".",".",".",".","."],[".",".",".",".",".",".",".",".",".",".",".",".",".","."],[".",".",".",".",".",".",".",".",".",".",".",".",".","."],[".",".",".",".",".",".",".",".",".",".",".",".",".","."],[".",".",".",2,".",".",".",".",".",".",".",".",".","."],[2,"/",4,".",4,2,2,".",2,2,4,6,7,"."]],[[".",".",".",".",".",".",".",".",".",".",".",".",".",".",".",".",".",".",".",".",".",".","."],[".",".",".",".",".",".",".",".",".",".",".",".",".",".",".",".",".",".",".",".",".",".","."],[3,"v",".",3,"v",".",".",3,"v",".",".",3,"v",".",".",".",".",10,"v",".",".",".","."],[".",".",".",".",".",".",".",".",".",".",".",".",".",".",".",".",".",".",".",".","x",3,"."],[".",".",".",".",".",".",".",".",".",".",".",".",".",".",".",".",".",".",".",".",".",".","."],[".",".",4,".",".",".",4,".",".",".",4,".",".",".",4,"/",11,".",".",".",".",".","."]],[[".",".",".",".",".",".",".",".",".",".",".",".",".",".",".",".",".",".",".",".",".",".","."],[".",".",".",".",".",".",".",".",".",".",".",".",".",".",".",".",9,".",".",10,".",".","."],[3,"v",".",".",3,"v",".",3,"v",".",".",3,"v",".",".",".",11,"b",13,12,"b",14,"."],[".",".",".",".",".",".",".",".",".",".",".",".",".",".",".",".",".",".",".",".",".",".","."],[".",".",".",".",".",".",".",".",".",".",".",".",".",".",".",".",".",".",".",".",".",".","."],[".",".",4,".",".",".",4,".",".",".",4,".",".",".",4,".",".",".",".",".",".",".","."]],[[],[],[],[],[],[]]],"numberofstrings":6,"notes":["E","B","G","D","A","E","B"],"capo":0,"stringnotes":["E4","B3","G3","D3","A2","E2"],"comments":["Stave 1:","Stave 2:","Stave 3:","Stave 4:","Stave 5:","Stave 6:","Stave 7:"],"timing":[[null,"W","W","W",null,null,"W",null,null,"W",null,null,null,"W",null,"W","W","W",null,null,null,"W"],[null,"W","W","W","W","W","W","W",null,"W","W","W","W","W","W","W","W",null,null,"W"],[null,"W",null,"W","W","W","W","W","W","W","W","W","W","W","W",null,"W",null,"W","W","W","W","W",null,"W","W","W","W","W","W",null,"W"],[null,"W",null,"W","W","W","W","W",null,"W","W","W","W","W"],[null,"W","W","W","W",null,null,"W","W",null,null,"W","W",null,null,"W",null,"W","W","W",null,null,"W"],[null,"W",null,"W",null,"W",null,"W","W",null,null,"W","W",null,null,"W",null,"W",null,"W","W","W","W"],[]],"timingvisible":false,"tabcounter":0,"stave":6,"totalstaves":7,"instrument":"6guitar","selectedtuning":"6_standard","version":"13"}

Member for

6 months
Submitted by WhoSavedWho on Mon, 2021-03-08 19:42