Sound will begin in 5 seconds

A Winter Shade Of Pale

Chords
01234567891011121314151617181920212223
E
B
G
D
A
E
B
0 1 2 3 4 5 6 7 8 9 10 11 12 13 14 15 16 17 18 19 20 21 22 23
Song Science #1: How Pros Use 6 Chords to Write Hit Songs
(/) Slide Up  (\) Slide Down  (h) Hammer On  (p) Pull Off  (b) Bend (r) Release (v) Vibrato

Stave 1:

E|--0--------0--0--------0--0-----------------0-----|--5--------5--------7--8----------------------------|--
B|--1-----1-----------1--------3--1--0--1--3-----1--|--------------------8-----6p5--6--------------6-----|--
G|--0--0-----------0--------------------------------|--------5-----------7----------------5--------5-----|--
D|--------------------------------2-----------2-----|-----3-----------9----------------7--------7-----7--|--
A|--3-----------2-----------0-----------------------|--------------7-----------5-------------------------|--
E|--------------------------------------3-----------|----------------------------------------8-----------|--

Stave 2:

E|--7--------7--------8--10-------------------1--0--1--|--1--0--------5--------3--3-----------1--0--1-----|--
B|--------0------------------8p6--8-----0--------------|--------3--1-----------------------0-----------3--|--
G|-----0-----------0-----------------0-----------------|--------------------5-----------0-----------------|--
D|-----------------------------------------0-----------|--------0--2-----3-----------0--------------------|--
A|--------------8------------7-------------------------|--3-----------------------------------0-----2-----|--
E|-----------------------------------------------------|--------------------------3-----------------------|--

Stave 3:

E|--------------0h1p0--
B|-----------0---------
G|--------0------------
D|-----2---------------
A|--3--------2--3------
E|--------3------------

http://www.guitartabcreator.com
Guitar Tab Creator is intended to store guitar tab created through the tool. It currently does not support in-line text editing. Any text you place in here will be lost. If you need to comment on your tab, please use the "Tab Notes" section located below.