Sound will begin in 5 seconds

Just Like Heaven

Chords
01234567891011121314151617181920212223
E
B
G
D
A
E
B
0 1 2 3 4 5 6 7 8 9 10 11 12 13 14 15 16 17 18 19 20 21 22 23
Song Science #1: How Pros Use 6 Chords to Write Hit Songs
(/) Slide Up  (\) Slide Down  (h) Hammer On  (p) Pull Off  (b) Bend (r) Release (v) Vibrato

Stave 1:

E|--10--10--10--7--7--7--5--5--4--4--4--2--2--2--0--0--
B|--11--11--11--9--9--9--7--7--5--5--5--3--3--3--2--2--
G|--10--10--10--9--9--9--6--6--------------------------
D|-----------------------------------------------------
A|--0-----------0--------------------------------------
E|-----------------------------0--------0--------------

Stave 2:

E|-----------------------------------------------
B|--3--3-----2--3-----0-----------------------0--
G|--4--4-----4--4--------------2-----2--------2--
D|--4--4-----4--4--------------4-----4-----4--4--
A|--2-----2--------------5--------------5--------
E|-----------------------------------------------

Stave 3:

E|--------------------------2--2--2--4--4--4--5--5--
B|--2--2--2--3--3--3--5--5--3--3--3--5--5--5--7--7--
G|--2--2--2--4--4--4--6--6--------------------------
D|--2--2--2-----------------------------------7--7--
A|--0--------0--------------------------------------
E|--------------------------0--------0--------------

Stave 4:

E|--7--7--7--9---9---9---9---9---10--10--10--12--12--12--12--12--
B|--7--7--7--10--10--10--10--10--10--10--10--10--10--10--10--10--
G|-------------------------------11--11--11--11--11--11--11--11--
D|-------------------------------0-----------0-------------------
A|---------------------------------------------------------------
E|--7--------7---------------------------------------------------

http://www.guitartabcreator.com
Guitar Tab Creator is intended to store guitar tab created through the tool. It currently does not support in-line text editing. Any text you place in here will be lost. If you need to comment on your tab, please use the "Tab Notes" section located below.