Sound will begin in 5 seconds

Brothers In Arms

01234567891011121314151617181920212223
E
B
G
D
A
E
B
0 1 2 3 4 5 6 7 8 9 10 11 12 13 14 15 16 17 18 19 20 21 22 23
Song Science #1: How Pros Use 6 Chords to Write Hit Songs
(/) Slide Up  (\) Slide Down  (h) Hammer On  (p) Pull Off  (b) Bend (r) Release (v) Vibrato

Stave 1:

E|---------------------------------------------------------------------
B|---------------------------------------------------------------4-----
G|----------3-----------3--4--------3--4/6--4--3--------------4-----6--
D|-------6-----6-----6----------------------------6--4--6--------------
A|--4/6----------------------------------------------------------------
E|---------------------------------------------------------------------

Stave 2:

E|---------------------------------------------------------------------
B|---------------------------------------------------------------------
G|--6b8--6--4--3--------------------4--3--------------------6b6--4--6--
D|----------------6--4--6--6-----------------6--6----------------------
A|----------------------------------------6----------------------------
E|---------------------------------------------------------------------

Stave 3:

E|------------------------------------------------
B|---------------------------------------5--4-----
G|--8p6--6h8-----------8-----------------------6--
D|------------------------8-----------6-----------
A|------------------------------------------------
E|------------------------------------------------

Stave 4:

E|--------------------------------------------------------------------------
B|--------------------------------------------------------------4--------4--
G|--4p3--4/6--4--3--------------6v--\4--3--6--4--3-----------4-----6--------
D|------------------6--4--6--6----------------------6--4--6-----------------
A|--------------------------------------------------------------------------
E|--------------------------------------------------------------------------

Stave 5:

E|------------------------------------------------------------------------------------------------------
B|--9p7--7-------------4--5--7--------7p6-----6-----------9p7--6h7--------------------------5--4--------
G|-----------------------------------------8------------------------8--------4--6--4--3-----------6--4--
D|----------6h8----------------------------------8------------------------------------------------------
A|------------------------------------------------------------------------------------------------------
E|------------------------------------------------------------------------------------------------------

Stave 6:

E|------------------------------------------------------------
B|--7b9--7--4----------------------------------------4-----4--
G|-------------4--3--6--6--3--4/6--4--3--3--------4-----6-----
D|------------------------------------------6--6--------------
A|------------------------------------------------------------
E|------------------------------------------------------------

Stave 7:

E|----------------------------------------------------------------
B|-------------4----------------------------------5p4-------4-----
G|-------3--4-----6--------3--4--3-----4/6-------------6p4-----6--
D|----------------------------------------------------------------
A|--4/6-----------------------------6-----------------------------
E|----------------------------------------------------------------

Stave 8:

E|-------------------------------------------------4--6--4------------------------------------------
B|--------4--7b9r7p5-----7b9r7p5--4-----4--7--7b9-----------7p5--4--7--4--7--4--7b9--7--4-----------
G|-----4-----------------------------4-----------------------------------------------------4--3-----
D|--6--------------------------------------------------------------------------------------------6--
A|--------------------------------------------------------------------------------------------------
E|--------------------------------------------------------------------------------------------------

Stave 9:

E|-----------
B|-----------
G|-----------
D|--4--6--6--
A|-----------
E|-----------

http://www.guitartabcreator.com
Guitar Tab Creator is intended to store guitar tab created through the tool. It currently does not support in-line text editing. Any text you place in here will be lost. If you need to comment on your tab, please use the "Tab Notes" section located below.