Sound will begin in 5 seconds

The Storm

01234567891011121314151617181920212223
E
B
G
D
A
E
B
0 1 2 3 4 5 6 7 8 9 10 11 12 13 14 15 16 17 18 19 20 21 22 23
Song Science #1: How Pros Use 6 Chords to Write Hit Songs
(/) Slide Up  (\) Slide Down  (h) Hammer On  (p) Pull Off  (b) Bend (r) Release (v) Vibrato

Stave 1:

F |--------------------------------------------------------------------------------------------------
Db|--------------------------------------------------------------------------------------------------
Ab|--------------------------------------------------------------------------------------------------
Eb|--------------------------------------------------------------------------------------------------
Ab|--0--0-----0-----0--0--0--0--0-----0-----0-----0--0--0-----0-----0-----0--0--0-----0--0-----0--0--

Stave 2:

F |--------------------------------------------------------------------------------6--------
Db|--------------------------------------------------------------------------9--------------
Ab|--------------------------------------------------------------------------------------8--
Eb|-----------------------------------------------------------------------------------------
Ab|--0--0-----0-----0--0--0--0--0-----0-----0-----0--0--0-----0-----0-----0-----------------

Stave 3:

F |---------------------------------------------------
Db|---------------------------------------------------
Ab|---------------------------------------------------
Eb|---------------------------------------------------
Ab|--0--0-----0-----0-----0--12-----12--12-----12-----

Stave 4:

F |---------------------------------------------------------------
Db|----------------------------------------17---------------------
Ab|---------------------------------------------------------------
Eb|---------------------------------0--15------15--0--14--15--14--
Ab|--0--0-----0-----0-----0--10-----------------------------------

Stave 5:

F |----------------------------------------------------------------------------------------------
Db|-----------------------------------------------------------------------17---------------------
Ab|----------------------------------------------------------------------------------------------
Eb|--14--------14--------14--------14--14--14--------14--------14--0--15------15--0--14--15--14--
Ab|---------0------0------------0--------------0------------0------------------------------------

Stave 6:

F |----------------------------------------------------------------------------------------------
Db|-----------------------------------------------------------------------17---------------------
Ab|----------------------------------------------------------------------------------------------
Eb|--14--------14--------14--------14--14--14--------14--------14--0--15------15--0--14--15--14--
Ab|---------0------0------------0--------------0------------0------------------------------------

Stave 7:

F |----------------------------------------------------------------------------------------------
Db|----------------------------------------------------------------------------------------------
Ab|----------------------------------------------------------------14--15--14--0-----------------
Eb|--14--------14--------14--------14--14--14--------14--------14-----------------14--15--14--0--
Ab|---------0------0------------0--------------0------------0------------------------------------

Stave 8:

F |--14--15-----------14--15--16--17-----15--16--17--18--------------
Db|------------------------------------------------------------------
Ab|------------------------------------------------------------------
Eb|------------------------------------------------------------------
Ab|-------------0-------------------------------------------0--0-----

Stave 9:

F |------------------------------------------------
Db|------------------------------------------------
Ab|--7--8--7------------------------------------7--
Eb|-----------8--10--0-------------------8--10-----
Ab|---------------------8--10--0--8--10------------

Stave 10:

F |--------11--10---------------11--10----------------------10--
Db|----------------10--9----------------10--9---------9---------
Ab|--------------------------------------------12---------------
Eb|-------------------------------------------------------------
Ab|--0--------------------0-------------------------------------

Stave 11:

F |-----------11--10---------------11--10------------------------------------
Db|-------------------10--9----------------10--9-----------------------------
Ab|-----------------------------------------------7--8--7--0--10--13--10--0--
Eb|--------------------------------------------------------------------------
Ab|-----0--------------------0-----------------------------------------------

Stave 12:

F |--------------------------------------------------------------------
Db|--------------------------------------------------------------------
Ab|--------------------------------------------------------------------
Eb|--8--------8--------7--------0--------8--------8--------7--------0--
Ab|--------------------------------------------------------------------

Stave 13:

F |-----------------------------------------
Db|-----------------------------------------
Ab|-----------------------------------------
Eb|-----------------------------------------
Ab|--------------------------0--------------

Stave 14:

F |------------------------------------------------------------------------------------------10--
Db|---------------------------------------------------------------------------------------9------
Ab|-----------------------------------------------------------------------------------12---------
Eb|----------------------------------------------------------------------------------------------
Ab|--------0--0--0-----0-----0-----0--0\0-----0--0-----7-----7-----10--10--10--10----------------

http://www.guitartabcreator.com
Guitar Tab Creator is intended to store guitar tab created through the tool. It currently does not support in-line text editing. Any text you place in here will be lost. If you need to comment on your tab, please use the "Tab Notes" section located below.