Sound will begin in 5 seconds

Oceans Ate Alaska - Linger

Chords
01234567891011121314151617181920212223
E
B
G
D
A
E
B
0 1 2 3 4 5 6 7 8 9 10 11 12 13 14 15 16 17 18 19 20 21 22 23
Song Science #1: How Pros Use 6 Chords to Write Hit Songs
(/) Slide Up  (\) Slide Down  (h) Hammer On  (p) Pull Off  (b) Bend (r) Release (v) Vibrato

Stave 1:

Db|-------------15---------------------15--------------------------------------------
Ab|---------13------13-------------13------13------15--13--12----------12-----13-----
E |-----14--------------14-----14--------------14--------------12--14----------------
B |----------------------------------------------------------------------------------
Gb|--0----------------------0--------------------------------------------------------
B |----------------------------------------------------------------------------------

Stave 2:

Db|-------------15---------------------15-----------------------------------------------------
Ab|---------13------13-------------13------13------15--13--12----------12-----13--12----------
E |-----14--------------14-----14--------------14--------------12--14-----------------12------
B |---------------------------------------------------------------------------------------12--
Gb|--0----------------------0-----------------------------------------------------------------
B |-------------------------------------------------------------------------------------------

Stave 3:

Db|-------------15-------------------------------------------------
Ab|---------13------13------17-----15------------15-----13-----12--
E |-----14--------------14----------------16-----------------------
B |----------------------------------------------------------------
Gb|--0-------------------------------------------------------------
B |----------------------------------------------------------------

Stave 4:

Db|-------------15-------------------------------------------------
Ab|---------13------13------17-----15------------15-----13-----12--
E |-----14--------------14----------------16-----------------------
B |----------------------------------------------------------------
Gb|--0-------------------------------------------------------------
B |----------------------------------------------------------------

Stave 5:

Db|-------------------------------------------------------------------------------------7--8--7--------
Ab|----------------------------------------------------------------------------------------------8--7--
E |----------------------------------------------------------------------------------------------------
B |--------5-------------------------------------------------x--x-----7--7-----------------------------
Gb|----------------------------------------------------------x--x-----7--7-----------------------------
B |--2--------2-----2-----2/5--5--5--5-----5--5--7-----7-----x--x--0--7--7-----2--2--------------------

Stave 6:

Db|-----------------------------------------------------------------------------------
Ab|-----------------------------------------------------------------------------------
E |-----------h5----------------------------------------------------------------------
B |-----------------------------------------------------------------------------------
Gb|-----------------------------------------------------------------------------------
B |--0--0------------2/5--5--5--5-----5-----5--5--5--7--7-----7-----2--2-----2--2--7--

Stave 7:

Db|------------------------------------------7--8--7--------------------
Ab|---------------------------------------------------8--7--------------
E |-----------------------------------h5--------------------------------
B |--5------------------------------------------------------------------
Gb|---------------------------------------------------------------------
B |-----2-----5--5--5--5--7-----7------------------------------2-----2--

Stave 8:

Db|-----------------------------------------------------------------------------
Ab|-----------------------------------------------------------------------------
E |-----------------------------------------------------------------------------
B |--0--0--0-----0--0--0-----0--0--0-----0-----0--0--------------------------1--
Gb|--0--0--0-----0--0--0-----0--0--0-----0-----0--0-----1-----------0--1--2-----
B |--1--1--1-----1--1--1-----1--1--1-----1-----1--1--0--------0--0--------------

Stave 9:

Db|----------------------------------------------------------------
Ab|----------------------------------------------------------------
E |----------------------------------------------------------------
B |-------------0-----0--0--0-----0--0--------------------------1--
Gb|-------------0-----0--0--0-----0--0-----1-----------0--1--2-----
B |--1b0--0--1--1-----1--1--1-----1--1--1--------0--0--------------

Stave 10:

Db|-------------------------------------------------------0--------------------------------------------
Ab|-------------------------------------------------------4--------------------------------------------
E |-------------------------------------------------------7--------------------------------------------
B |----------0--0-----------------------5--------0--0--0--------0--0-----0--0--0--0-----0--0-----0--0--
Gb|----------0--0-----------5-----5--6-----------0--0--0--------0--0-----0--0--0--0-----0--0-----0--0--
B |--1b1-----1--1-----0--------6-----------0-----0--0--0--------1--1-----1--1--1--1-----1--1-----1--1--

Stave 11:

Db|-----------------------------------------------------------------------0--------
Ab|-----------------------------------------------------------------------4--------
E |----------16-----------------------------------------------------------7--------
B |------14------0--0--0--0-----------------------------5--0-----0--0--0-----0--0--
Gb|--15----------0--0--0--0-----------------5-----5--6-----0-----0--0--0-----0--0--
B |--------------1--1--1--1-----0-----0--------6-----------0-----0--0--0-----1--1--

Stave 12:

Db|-----------------------------------------------------------------------------------------------------
Ab|-----------------------------------------------------------------------------------------------------
E |-----------------------------------------------------------------------------------------------------
B |--0--0--0--0-----0--0--0-----0--0--0-----0--0--0--0--0--0--0--0-----0-----0--0--0-----0-----0--0--0--
Gb|--0--0--0--0-----0--0--0-----0--0--0-----0--0--0--0--0--0--0--0-----0-----0--0--0-----0-----0--0--0--
B |--1--1--1--1-----1--1--1-----1--1--1-----1--1--1--1--1--0--0--0-----0-----0--0--0-----0-----0--0--0--

Stave 13:

Db|-----------------------------------------------------------------------------
Ab|-----------------------------------------------------------------------------
E |-----------------------------------------------------------------------------
B |--x--x--x--x--x--x--x--x--0-----0--0--0-----0-----0--0--0-----0-----0--0--0--
Gb|--x--x--x--x--x--x--x--x--0-----0--0--0-----0-----0--0--0-----0-----0--0--0--
B |--x--x--x--x--x--x--x--x--0-----0--0--0-----0-----0--0--0-----0-----0--0--0--

Stave 14:

Db|----------------------------------------------------------
Ab|----------------------------------------------------------
E |----------------------------------------------------------
B |--------10--10--9--9--------------------------------5--5--
Gb|----------------------10--10----------12--12--------------
B |--7--7------------------------10--10----------5--5--------

Stave 15:

Db|------------------------------8--7--10--7------------
Ab|-------------------------------------------8--10-----
E |--------------------------------------------------9--
B |--------10--10--9--9---------------------------------
Gb|----------------------10--10-------------------------
B |--7--7-----------------------------------------------

Stave 16:

Db|----------------------------------------------------------
Ab|----------------------------------------------------------
E |----------------------------------------------------------
B |--------10--10--9--9--------------------------------5--5--
Gb|----------------------10--10----------12--12--------------
B |--7--7------------------------10--10----------5--5--------

Stave 17:

Db|----------------------------------------------------------
Ab|----------------------------------------------------------
E |------------------------------------------------------12--
B |--------10--10--9--9----------------------10--12--15------
Gb|----------------------10--10--10--12--14------------------
B |--7--7----------------------------------------------------

Stave 18:

Db|----------------------------------------------------------
Ab|----------------------------------------------------------
E |----------------------------------------------------------
B |--------10--10--9--9--------------------------------------
Gb|----------------------10--10----------12--12--------------
B |--7--7------------------------10--10----------5--5--5--5--

Stave 19:

Db|------------------------------------------------
Ab|------------------------------------------------
E |------------------------------------------------
B |--10--10--9--9----------------------------------
Gb|----------------10--10--12--12--12--10--10--10--
B |------------------------------------------------

Stave 20:

Db|----------------------------------------------------------
Ab|----------------------------------------------------------
E |----------------------------------------------------------
B |--------10--10--9--9--------------------------------5--5--
Gb|----------------------10--10----------12--12--------------
B |--7--7------------------------10--10----------5--5--------

Stave 21:

Db|----------------------------------------------------------------------------------------------
Ab|----------------------------------------------------------------------------------------------
E |------------------------------------------------------12--12--16--12--16--12--16--16------12--
B |--------10--10--9--9----------------------10--12--15----------------------------------14------
Gb|----------------------10--10--10--12--14------------------------------------------------------
B |--7--7----------------------------------------------------------------------------------------

Stave 22:

Db|----------------------------------------------------------------------------
Ab|-----------------------------------------------------------------13\12------
E |--14--16------14--17------16------14--16------14--17------12/14---------12--
B |----------14----------14------14----------14----------14--------------------
Gb|----------------------------------------------------------------------------
B |----------------------------------------------------------------------------

Stave 23:

Db|------------------------------------------------------------------
Ab|------------------------------------------------------------------
E |--14--16------14--17------16------14--16------14--17------16--17--
B |----------14----------14------14----------14----------17----------
Gb|------------------------------------------------------------------
B |------------------------------------------------------------------

Stave 24:

Db|--------------------------19--22--15--19------19------19----------
Ab|--17--19----------19--20------------------22------20--------------
E |----------16--19------------------------------------------19--16--
B |------------------------------------------------------------------
Gb|------------------------------------------------------------------
B |------------------------------------------------------------------

Stave 25:

Db|--------------------------17--19--22--19--17------17---------
Ab|--17--19----------19--20----------------------20------20-----
E |----------16--19------------------------------------------19\
B |-------------------------------------------------------------
Gb|-------------------------------------------------------------
B |-------------------------------------------------------------

Stave 26:

Db|--------------------------------------
Ab|--------------------------------------
E |--------------------------------------
B |--0--0--0--0--0--0-----0--0--0--0--0--
Gb|--0--0--0--0--0--0-----0--0--0--0--0--
B |--0--0--0--0--0--0-----0--0--0--0--0--

Stave 27:

Db|------------------------------------------------------------------
Ab|--12--12--12--12--12--12--12--12--15--15--15--15--15--15--15--15--
E |--12--12--12--12--12--12--12--12--14--14--14--14--14--14--14--14--
B |--10--10--10--10--10--10--10--10--12--12--12--12--12--12--12--12--
Gb|------------------------------------------------------------------
B |------------------------------------------------------------------

Stave 28:

Db|------------------------------------------------------------------
Ab|--13--12------------------13--12------------------13--12----------
E |----------14--12------------------14--12------------------14--12--
B |------------------14--12------------------14--12------------------
Gb|------------------------------------------------------------------
B |------------------------------------------------------------------

Stave 29:

Db|------------------------------------------------------------------
Ab|--15--12------------------15--12------------------15--12----------
E |----------14--12------------------14--12------------------14--12--
B |------------------14--12------------------14--12------------------
Gb|------------------------------------------------------------------
B |------------------------------------------------------------------

Stave 30:

Db|--------------------------------------------------------------------
Ab|--------------------------------------------------------------------
E |--------------------------------------------------------------------
B |-----------------0--0--0--0--------------------------------------5--
Gb|-----------------0--0--0--0--------------------------------5--6-----
B |--1--0--1--0--1--0--0--0--0--0--1--1--0--1--0--0--0--0--0-----------

Stave 31:

Db|--------------------------------------------------------------------------------------------
Ab|--------------------------------------------------------------------------------------------
E |--------------------------------------------------------------------------------------------
B |-----------------0--0--0--0--------------------------------------------5-----------------5--
Gb|-----------------0--0--0--0--------------------------------5-----5--6--------5-----5--6-----
B |--0--0--1--0--1--0--0--0--0--0--1--1--0--1--0--0--0--0--6-----6-----------6-----6-----------

Stave 32:

Db|----------------------------------------------------------------------
Ab|-----13--14-----14--11-----11--13-----13--13--13--13-----13--15\0-----
E |-----16--17-----17--14-----14--16-----16--16--16--16-----16--18-0-----
B |----------------------------------------------------------------------
Gb|----------------------------------------------------------------------
B |----------------------------------------------------------------------

Stave 33:

Db|--------------------------------------3-----------------------------------
Ab|--------------------------------------3-----------------------------------
E |--------------------------------------3-----------------------------------
B |-----0-----0-----0--0-----0--0--0-----3-----0-----0-----0--0-----0--0--0--
Gb|-----0-----0-----0--0-----0--0--0-----3-----0-----0-----0--0-----0--0--0--
B |-----1-----1-----1--1-----1--1--1-----3-----1-----1-----1--1-----1--1--1--

Stave 34:

Db|-------------------------------------------------------------------------------
Ab|-------------------------------------------------------------------------------
E |-------------------------------------------------------------------------------
B |--------10--10--12--12--12--12--------5--5--------7--7--7--7--------10--10--9--
Gb|----------------10--10--10--10--------------------5--5--5--5----------------7--
B |--7--7----------10--10--10--10--5--5--------5--5--5--5--5--5--7--7----------7--

Stave 35:

Db|--------------------------------
Ab|--------------------------------
E |--------------------------------
B |--------5--5--------9--9--9--9--
Gb|--------------------7--7--7--7--
B |--3--3--------7--7--7--7--7--7--

Stave 36:

Db|----------------------------------------------------------
Ab|----------------------------------------------------------
E |----------------------------------------------------------
B |--------10--10--9--9--------------------------------5--5--
Gb|----------------------10--10----------12--12--------------
B |--7--7------------------------10--10----------5--5--------

Stave 37:

Db|------------------------------8--7--10--7------------
Ab|-------------------------------------------8--10-----
E |--------------------------------------------------9--
B |--------10--10--9--9---------------------------------
Gb|----------------------10--10-------------------------
B |--7--7-----------------------------------------------

Stave 38:

Db|----------------------------------------------------------
Ab|----------------------------------------------------------
E |----------------------------------------------------------
B |--------10--10--9--9--------------------------------5--5--
Gb|----------------------10--10----------12--12--------------
B |--7--7------------------------10--10----------5--5--------

Stave 39:

Db|----------------------------------------------------------
Ab|----------------------------------------------------------
E |------------------------------------------------------12--
B |--------10--10--9--9----------------------10--12--15------
Gb|----------------------10--10--10--12--14------------------
B |--7--7----------------------------------------------------

Stave 40:

Db|----------------------------------------------------------
Ab|----------------------------------------------------------
E |----------------------------------------------------------
B |--------10--10--9--9--------------------------------------
Gb|----------------------10--10----------12--12--------------
B |--7--7------------------------10--10----------5--5--5--5--

Stave 41:

Db|------------------------------------------------
Ab|------------------------------------------------
E |------------------------------------------------
B |--10--10--9--9----------------------------------
Gb|----------------10--10--12--12--12--10--10--10--
B |------------------------------------------------

Stave 42:

Db|----------------------------------------------------------
Ab|----------------------------------------------------------
E |----------------------------------------------------------
B |--------10--10--9--9--------------------------------5--5--
Gb|----------------------10--10----------12--12--------------
B |--7--7------------------------10--10----------5--5--------

Stave 43:

Db|----------------------------------------------------------
Ab|----------------------------------------------------------
E |------------------------------------------------------12--
B |--------10--10--9--9----------------------10--12--15------
Gb|----------------------10--10--10--12--14------------------
B |--7--7----------------------------------------------------

Stave 44:

Db|------------------------------------------------------------------
Ab|--12--12--12--12--12--12--12--12--15--15--15--15--15--15--15--15--
E |--12--12--12--12--12--12--12--12--14--14--14--14--14--14--14--14--
B |--10--10--10--10--10--10--10--10--12--12--12--12--12--12--12--12--
Gb|------------------------------------------------------------------
B |------------------------------------------------------------------

Stave 45:

Db|------------------------------------------------------------------
Ab|--13--12------------------13--12------------------13--12----------
E |----------14--12------------------14--12------------------14--12--
B |------------------14--12------------------14--12------------------
Gb|------------------------------------------------------------------
B |------------------------------------------------------------------

Stave 46:

Db|------------------------------------------------------------------
Ab|--15--12------------------15--12------------------15--12----------
E |----------14--12------------------14--12------------------14--12--
B |------------------14--12------------------14--12------------------
Gb|------------------------------------------------------------------
B |------------------------------------------------------------------

Stave 47:

Db|---------12---------17--19-------------20--19--15--
Ab|--15------------------------15-----17--------------
E |-------------14------------------------------------
B |---------------------------------------------------
Gb|---------------------------------------------------
B |---------------------------------------------------

Stave 48:

Db|-------------15---------------------15-----------------------------------------
Ab|---------13------13-------------13------13------15--13--12----------12-----13--
E |-----14--------------14-----14--------------14--------------12--14-------------
B |-------------------------------------------------------------------------------
Gb|--0----------------------0-----------------------------------------------------
B |-------------------------------------------------------------------------------

Stave 49:

Db|-------------15---------------------15-----------------------------------------------------
Ab|---------13------13-------------13------13------15--13--12----------12-----13--12----------
E |-----14--------------14-----14--------------14--------------12--14-----------------12------
B |---------------------------------------------------------------------------------------12--
Gb|--0----------------------0-----------------------------------------------------------------
B |-------------------------------------------------------------------------------------------

Stave 50:

Db|-------------------------------------------------------------------------------7--8--7-----------------
Ab|----------------------------------------------------------------------------------------8--7-----------
E |-------------------------------------------------------------------------------------------------------
B |--------5----------------------------------------------------7--7--------------------------------------
Gb|-------------------------------------------------------------7--7--------------------------------------
B |--2--------2-----2-----2/5--5--5--5-----5--5--7-----7-----7--7--7-----2--2-----------------------2--2--

Stave 51:

Db|----------------------------------------------------------7--8--7--------------------
Ab|-------------------------------------------------------------------8--7--------------
E |--5----------------------------------------------------------------------------------
B |-------------------------------------------------------------------------------------
Gb|-------------------------------------------------------------------------------------
B |--------2/5--5--5--5-----5-----5--5-----5--7--7-----7-----------------------2-----2--

Stave 52:

Db|-----------7--------8--------------10-----------------7--------8--------------10--------8-----
Ab|--------8-----8--------8--------8------8-----------8-----8--------8--------8------8--------8--
E |-----5-----------5-----------5------------5-----5-----------5-----------5------------5--------
B |----------------------------------------------------------------------------------------------
Gb|--0-----------------------7------------------0-----------------------7------------------------
B |----------------------------------------------------------------------------------------------

http://www.guitartabcreator.com
Guitar Tab Creator is intended to store guitar tab created through the tool. It currently does not support in-line text editing. Any text you place in here will be lost. If you need to comment on your tab, please use the "Tab Notes" section located below.