Sound will begin in 5 seconds

Oceans Ate Alaska - Blood Brothers

Chords
01234567891011121314151617181920212223
E
B
G
D
A
E
B
0 1 2 3 4 5 6 7 8 9 10 11 12 13 14 15 16 17 18 19 20 21 22 23
Song Science #1: How Pros Use 6 Chords to Write Hit Songs
(/) Slide Up  (\) Slide Down  (h) Hammer On  (p) Pull Off  (b) Bend (r) Release (v) Vibrato

Stave 1:

Db|------------------------------------------------------------------------------------------------------
Ab|------------------------------------------------------------------------------------------------------
E |------------------------------------------------------------------------------------------------------
B |-------------------------------------------12------------------------------7--8--7--0--10--13--10--0--
Gb|-------------------------------------------------------12----10--12-----------------------------------
B |--0--0--10--12--0--0--10--13--10--0--0--0--------0--0----------------0--0-----------------------------

Stave 2:

Db|-----------------------------------------------------------------------15--
Ab|---------------------------------------------------13----------13----------
E |-------------------------------------------------------14----------14------
B |-----------------------------------------------------------12--------------
Gb|----------------------------------------0----------------------------------
B |--0--10--12--0--0--10--13--10--0--0--0--0----0--0--------------------------

Stave 3:

Db|------------------------------------------------------------------------------------------------------
Ab|------------------------------------------------------------------------------------------------------
E |------------------------------------------------------------------------------------------------------
B |-------------------------------------------12------------------------------7--8--7--0--10--13--10--0--
Gb|-------------------------------------------------------12----10--12-----------------------------------
B |--0--0--10--12--0--0--10--13--10--0--0--0--------0--0----------------0--0-----------------------------

Stave 4:

Db|----------------------15----------------------\19----------------------------------------------
Ab|----15----------13--------13------15-----------------------------------------------------------
E |--------14--------------------14---------------------------------------------------------------
B |------------12--------------------------12--10-------7--7----7--7--7--7----------7--7----7--7------
Gb|-----------------------------------------------------7--7----7--7--7--7----------7--7----7--7------
B |-----------------------------------------------------7--7----7--7--7--7----------7--7----7--7--

Stave 5:

Db|----------------------------------------------------------------------------
Ab|----------------------------------------------------------------------------
E |----------------------------------------------------------------------------
B |--10--10--10----10--10--8--7--5--0---------------7--8--7--0--10--13--10--0------
Gb|--10--10--10----10--10--------------8--10--8--0---------------------------------
B |--10--10--10----10--10------------------------------------------------------

Stave 6:

Db|----------------------------------------------------------------
Ab|----------------------------------------------------------------
E |--2--2----------------------------------------------------------
B |--0--0----0--0--0----0--0--0--0--0--0--0--0--7----7----5--5--5------
Gb|--0--0----0--0--0----0--0--0--0--0--0--0--0--7----7----3--3--3------
B |--0--0----0--0--0----0--0--0--0--0--0--0--0--7----7----2--2--2--

Stave 7:

Db|----------------------------------------------------------------
Ab|--------------------------------------------------4v------------
E |----------------------------------14v--17v--7v----7-------------
B |--0--0----0--0----0--0----0--0----------------------------------
Gb|--0--0----0--0----0--0----0--0----------------------------------
B |--0--0----0--0----0--0----0--0----------------------------------

Stave 8:

Db|------------17v--13v-------------------------------------------
Ab|--15v--b15-----------------------------------------------------
E |------------------------19--12---------------------17----------
B |--------------------------------17--12--15/17--12--------------
Gb|---------------------------------------------------------------
B |---------------------------------------------------------------

Stave 9:

Db|--------------------------------------------------------------------------------------------------
Ab|--------------------------------------------------------------------------------------------------
E |--------------------------------------------------------------------------------------------------
B |--------------3-----------------------------------------------3-----------------------------------
Gb|--------1--------2--1--2--1-----1-----1-----1-----------1--------2--1--2--1-----1-----1-----1-----
B |--1--2-----2-----------------2-----4-----5-----4--1--2-----2-----------------2-----4-----5-----4--

Stave 10:

Db|--------------------------------------------------------------------------------------------------
Ab|--------------------------------------------------------------------------------------------------
E |--------------------------------------------------------------------------------------------------
B |--------------2-----------------------------------------------2-----------------------------------
Gb|--------1--0-----1--0--1--0-----0-----0-----0-----------1--0-----1--0--1--0-----0-----0-----0-----
B |--0--1-----------------------1-----2-----4-----1--0--1-----------------------1-----2-----4-----0--

Stave 11:

Db|-----------------------------------------------------------------------------------
Ab|-----------------------------------------------------------------------------------
E |--19--12---------------------19--12---------------------19--12---------------------
B |----------17--12--15/17--12----------17--12--15/17--12----------17--12--15/17--12--
Gb|-----------------------------------------------------------------------------------
B |-----------------------------------------------------------------------------------

Stave 12:

Db|-----------------------------------------------------------------------------------
Ab|-----------------------------------------------------------------------------------
E |--19--12---------------------19--12---------------------19--12---------------------
B |----------17--12--15/17--12----------17--12--15/17--12----------17--12--15/17--12--
Gb|-----------------------------------------------------------------------------------
B |-----------------------------------------------------------------------------------

Stave 13:

Db|----------------------------------------------------------------
Ab|----------------------------------------------------------------
E |--19--12---------------------19--12---------------------17--12--
B |----------17--12--15/17--12----------17--12--15/17--12----------
Gb|----------------------------------------------------------------
B |----------------------------------------------------------------

Stave 14:

Db|-----------------------------------------------------------------------------------
Ab|-----------------------------------------------------------------------------------
E |--17--10---------------------17--10---------------------17--10---------------------
B |----------17--10--15/17--10----------17--10--15/17--10----------17--10--15/17--10--
Gb|-----------------------------------------------------------------------------------
B |-----------------------------------------------------------------------------------

Stave 15:

Db|-----------------------------------------------------------------------------------
Ab|-----------------------------------------------------------------------------------
E |--17--10---------------------17--10---------------------17--10---------------------
B |----------17--10--15/17--10----------17--10--15/17--10----------17--10--15/17--10--
Gb|-----------------------------------------------------------------------------------
B |-----------------------------------------------------------------------------------

Stave 16:

Db|----------------------------------------------------------------
Ab|----------------------------------------------------------------
E |--17--10---------------------17--10---------------------17--10--
B |----------17--10--15/17--10----------17--10--15/17--10----------
Gb|----------------------------------------------------------------
B |----------------------------------------------------------------

Stave 17:

Db|---------17v--13v----12v--15v----------------------------------
Ab|--15v----------------------------------------------------------
E |-------------------------------12v----10v--12v----14v----------
B |---------------------------------------------------------------
Gb|---------------------------------------------------------------
B |---------------------------------------------------------------

Stave 18:

Db|---------------------------------3--3--3---------------------------------0-------
Ab|---------------------------------3--3--3---------------------------------0-------
E |---------------------------------3--3--3---------------------------------0-------
B |---------------------------------3--3--3--0--0--0--0-----------------------------
Gb|--6--6----6--6----6--6----6--6----3--3--3--0--0--0--0----6--6--6--6--6------------
B |--7--7----7--7----7--7----7--7----3--3--3--0--0--0--0----7--7--7--7--7---------0--

Stave 19:

Db|------------------3--3--3--3---------------------------------------------------------
Ab|------------------3--3--3--3---------------------------------------------------------
E |------------------3--3--3--3---------------------------------------------------------
B |------------------3--3--3--3----0--0--0------------0--0--0----x--0--0--0----0--0--0--
Gb|--6--6--6--6--6----3--3--3--3----0--0--0------------0--0--0----x--0--0--0----0--0--0--
B |--7--7--7--7--7----3--3--3--3----0--0--0----0--0----0--0--0----0--0--0--0----0--0--0--

Stave 20:

Db|-----------------------------------------15--8--14--8---------15--8--14--8---------
Ab|--5--7--8--12--7--8--15--7--8--12--7--8----------------15--8----------------15--8--
E |-----------------------------------------------------------------------------------
B |-----------------------------------------------------------------------------------
Gb|-----------------------------------------------------------------------------------
B |-----------------------------------------------------------------------------------

Stave 21:

Db|-------------------------------------------15--7--14--7---------15--7--14--7---------
Ab|--13/15--8-------------15--5--8--12--5--8----------------15--7----------------15--7--
E |------------12--7--------------------------------------------------------------------
B |-------------------10----------------------------------------------------------------
Gb|-------------------------------------------------------------------------------------
B |-------------------------------------------------------------------------------------

Stave 22:

Db|-----------------------------------------15--8--14--8---------15--8--14--8---------
Ab|--5--7--8--12--7--8--15--7--8--12--7--8----------------15--8----------------15--8--
E |-----------------------------------------------------------------------------------
B |-----------------------------------------------------------------------------------
Gb|-----------------------------------------------------------------------------------
B |-----------------------------------------------------------------------------------

Stave 23:

Db|----------------------17--7--8--17--7--8--19--7--8--19--7--8--19--7--8--0----------
Ab|--13/15--8--12--7--8----------------------------------------------------0----------
E |------------------------------------------------------------------------0----------
B |-----------------------------------------------------------------------------------
Gb|-----------------------------------------------------------------------------------
B |-----------------------------------------------------------------------------------

Stave 24:

Db|----------------------------------------------------------------------------
Ab|----------------------------------------------------------------------------
E |----------------------------------------------------------------------------
B |--0--0--0--0----0----0----0--0--0--0----0--0--0--0----0----0----0--0--0--0--
Gb|--0--0--0--0----0----0----0--0--0--0----0--0--0--0----0----0----0--0--0--0--
B |--1--1--1--1----1----1----1--1--1--1----1--1--1--1----1----1----1--1--1--1--

Stave 25:

Db|-----------------------------------------15--8--14--8---------15--8--14--8---------
Ab|--5--7--8--12--7--8--15--7--8--12--7--8----------------15--8----------------15--8--
E |-----------------------------------------------------------------------------------
B |-----------------------------------------------------------------------------------
Gb|-----------------------------------------------------------------------------------
B |-----------------------------------------------------------------------------------

Stave 26:

Db|------------------------3----------0--
Ab|------------------------3----------0--
E |------------------------3----------0--
B |--0--0----0--0----0--0--3----0--0-----
Gb|--6--6----6--6----6--6--3----6--6-----
B |--7--7----7--7----7--7--3----7--7-----

Stave 27:

Db|------------------------0----3--0-------------------------------------0--3-----
Ab|------------------------0----3--0-------------------------------------0--3-----
E |------------------------3----3--3-------------------------------------3--3-----
B |--0--0----0--0----0--0-------3-----0--0----0--0----0--0----0--0--0-------3-----
Gb|--0--0----0--0----0--0-------3-----0--0----0--0----0--0----0--0--0-------3-----
B |--1--1----1--1----1--1-------3-----1--1----1--1----1--1----1--1--1-------3--0--

Stave 28:

Db|------------------------------------------------------------------------------------------------
Ab|------------------------------------------------------------------------------------------------
E |------------------------------------------------------------------------------------------------
B |----------------------------------------12---------------------------7--8--7--0--10--13--10--0--
Gb|--------------------------------------------------12--10--12--10--0-----------------------------
B |--0--0--10--12--0--0--10--13--10--0--0------0--0------------------------------------------------

Stave 29:

Db|-----------------------------------------------------------------15--
Ab|---------------------------------------------13----------13----------
E |-------------------------------------------------14----------14------
B |-----------------------------------------------------12--------------
Gb|---------------------------------------------------------------------
B |--0--0--10--12--0--0--10--13--10--0--0--0----------------------------

Stave 30:

Db|------------------------------------------------------------------------------------------------
Ab|------------------------------------------------------------------------------------------------
E |------------------------------------------------------------------------------------------------
B |----------------------------------------12---------------------------7--8--7--0--10--13--10--0--
Gb|--------------------------------------------------12--10--12--10--0-----------------------------
B |--0--0--10--12--0--0--10--13--10--0--0------0--0------------------------------------------------

Stave 31:

Db|--------------------15----------------13--12----------
Ab|--15----------13--------13------15------------13------
E |------14--------------------14--------------------14--
B |----------12------------------------------------------
Gb|------------------------------------------------------
B |------------------------------------------------------

Stave 32:

Db|--6--5----------6--5-----8----5--6--5--------
Ab|--------6-------------6----------------6-----
E |-----------7------------------------------7--
B |---------------------------------------------
Gb|---------------------------------------------
B |---------------------------------------------

Stave 33:

Db|--6--5----------6--5-----8----5--6--5----------6--5----------6--5-----8----10--
Ab|--------6-------------6----------------6-------------6-------------6-----------
E |-----------7------------------------------7-------------7----------------------
B |-------------------------------------------------------------------------------
Gb|-------------------------------------------------------------------------------
B |-------------------------------------------------------------------------------

Stave 34:

Db|--17----------15--12----------------------------------------12--13--12----------12----15----20--
Ab|------13--15----------13--15----------------------------13--------------13----------------------
E |------------------------------14----12----14----12--14----------------------14------------------
B |------------------------------------------------------------------------------------------------
Gb|------------------------------------------------------------------------------------------------
B |------------------------------------------------------------------------------------------------

Stave 35:

Db|---------------------------------------------------------------------------------------------------
Ab|----------------------------------------------------------------17--13-----------------------------
E |--17--14---------------------17--14---------------------17--14----------17--14---------------------
B |----------19--14--17/19--14----------19--14--17/19--14--------------------------19--14--17/19--14--
Gb|---------------------------------------------------------------------------------------------------
B |---------------------------------------------------------------------------------------------------

Stave 36:

Db|-------------------------------------------------------------------------------
Ab|-------------------------------------------------------------------------------
E |--17--14---------------------17--14-----------------17--14---------------------
B |----------19--14--17/19--14----------19--14--17/19----------19--14--17/19--14--
Gb|-------------------------------------------------------------------------------
B |-------------------------------------------------------------------------------

Stave 37:

Db|-----------------------------15----------15----------15----------15----------15-------
Ab|---------------------------------13----------13----------13----------13----------13---
E |--17--14-----------------------------14----------14----------14----------14--------v--
B |----------19--14--17/19--14-----------------------------------------------------------
Gb|--------------------------------------------------------------------------------------
B |--------------------------------------------------------------------------------------

http://www.guitartabcreator.com
Guitar Tab Creator is intended to store guitar tab created through the tool. It currently does not support in-line text editing. Any text you place in here will be lost. If you need to comment on your tab, please use the "Tab Notes" section located below.