Sound will begin in 5 seconds

Equinox

Chords
01234567891011121314151617181920212223
E
B
G
D
A
E
B
0 1 2 3 4 5 6 7 8 9 10 11 12 13 14 15 16 17 18 19 20 21 22 23
Song Science #1: How Pros Use 6 Chords to Write Hit Songs
(/) Slide Up  (\) Slide Down  (h) Hammer On  (p) Pull Off  (b) Bend (r) Release (v) Vibrato

Stave 1:

Db|----------------------------------------------------------------------------------------------
Ab|----------------------------------------------------------------------------------------------
E |----------------------------------------------------------------------------------------------
B |------------------------------------------------------10--13--10--0--7--8--7--0-----------10--
Gb|----------------------10--12--10--0----------------------------------------------------7------
B |--0--0--12--10--0--0-----------------0--0--0----0--0-----------------------------0--0---------

Stave 2:

Db|-------------------------------------------------3-------------0-------
Ab|-------------------------------------------------3-------------0-------
E |-----------------------------------------9-------3-------------0-------
B |-----------------------------7--8--7--0-------0--3--0------------------
Gb|--------10--13--10--0--7--0-------------------0--3--0------------------
B |--0--0----------------------------------------0--3--0----/3---------0--

http://www.guitartabcreator.com
Guitar Tab Creator is intended to store guitar tab created through the tool. It currently does not support in-line text editing. Any text you place in here will be lost. If you need to comment on your tab, please use the "Tab Notes" section located below.