Sound will begin in 5 seconds

Desolate Earth - Aurora

Chords
01234567891011121314151617181920212223
E
B
G
D
A
E
B
0 1 2 3 4 5 6 7 8 9 10 11 12 13 14 15 16 17 18 19 20 21 22 23
Song Science #1: How Pros Use 6 Chords to Write Hit Songs
(/) Slide Up  (\) Slide Down  (h) Hammer On  (p) Pull Off  (b) Bend (r) Release (v) Vibrato

Stave 1:

C |-----------------------------0--------------------------------0---------------------------------
G |-----------------------------6--------------------------------6---------------------------------
Eb|-----------------------------5--------------------------------5--------0--9--10-----------------
Bb|-----0--0-----0--0-----0--0-----------0--0-----0--0-----0--0---------------------0--5--7--------
F |-----0--0-----0--0-----0--0-----------0--0-----0--0-----0--0------------------------------------
Bb|-----0--0-----0--0-----0--0-----0-----0--0-----0--0-----0--0-----0------------------------0-----

Stave 2:

C |-----------------------0-----------------------------------------0--
G |-----------------------6-----------------------------------6--------
Eb|-----------------------5-----------------------------5--------5-----
Bb|-----0--0-----0--0--------0--0-----0--0-----0--5--8-----8-----------
F |-----0--0-----0--0--------0--0-----0--0-----------------------------
Bb|-----0--0-----0--0--------0--0-----0--0-----------------------------

Stave 3:

C |------------------------------------------------------------------------------------------------
G |------------------------------------------------------------------------------------------------
Eb|----------------------------10------------------------------------------------------------------
Bb|-----------------0--10--14------14-------------------------------12-----------7-----2--3--2--0--
F |--3--5------------------------------------------------------------------------------------------
Bb|-----------0---------------------------0--0--10-----0--0--0--10---------0--3--------------------

Stave 4:

C |---------------------------------------------------------------------0--
G |---------------------------------------------------------------6--------
Eb|----------------------------10---------------------------5--------5-----
Bb|-----------------0--10--14------14--------------0--5--8-----8-----------
F |--3--5------------------------------------------------------------------
Bb|-----------0------------------------0--0--0-----------------------------

Stave 5:

C |-----------------------------------------------------------------------------------------------------
G |-----------------------------------------------------------------------------------------------------
Eb|-----------------------------------------------------------------------------------------------------
Bb|--0--0-----0--0-----0--0-----0--0-----0--0-----0--0-----0--0-----0--0-----0--0--0--0-----0--0--0--0--
F |--0--0-----0--0-----0--0-----0--0-----0--0-----0--0-----0--0-----0--0-----0--0--0--0-----0--0--0--0--
Bb|--0--0-----0--0-----0--0-----0--0-----0--0-----0--0-----0--0-----0--0-----0--0--0--0-----0--0--0--0--

Stave 6:

C |--------------------------------------------------------------------------------------
G |--------------------------------------------------------------------------------------
Eb|--------------------------------------------------------------------------------------
Bb|--0--0-----0--0-----0--0-----0--0-----0--0-----0--0-----0--0-----0--0-----------------
F |--0--0-----0--0-----0--0-----0--0-----0--0-----0--0-----0--0-----0--0-----------5--3--
Bb|--0--0-----0--0-----0--0-----0--0-----0--0-----0--0-----0--0-----0--0-----4--1--------

Stave 7:

C |------------------------------
G |------------------------------
Eb|--7--7--7--7--7--7--7b8--7b8--
Bb|------------------------------
F |------------------------------
Bb|------------------------------

Stave 8:

C |------------------------------------------------------------------
G |------------------------------------------------------------------
Eb|--------------------------7v--7v----------------------------------
Bb|--8v--8v--8v--8v--8v--8v----------7v--7v--7v--7v--5v--5v--5v--5v--
F |------------------------------------------------------------------
Bb|------------------------------------------------------------------

Stave 9:

C |--------------------------------------------------------------------------------------------------
G |--------------------------------------------------------------------------------------------------
Eb|--------------------------------------------------------------------------------------------------
Bb|--5-----------5-----5--5-----5--5-----5-----------5-----7-----------7-----7--7--7--7--7--7--7--7--
F |--1-----1-----1-----1--1-----1--1-----1-----1-----1-----3-----3-----3-----3--3--3--3--3--3--3--3--
Bb|--1-----1-----1-----1--1-----1--1-----1-----1-----1-----3-----3-----3-----3--3--3--3--3--3--3--3--

Stave 10:

C |----------17----------------------17------------------------------
G |----------------------20----------------------20----------18------
Eb|--17--15------------------17--15------------------17--15------15--
Bb|--------------15--17------------------15--17----------------------
F |------------------------------------------------------------------
Bb|------------------------------------------------------------------

Stave 11:

C |----------17--------------------------------------20--------------
G |----------------------20----------18------------------18----------
Eb|--17--15------------------17--15------15--17--15----------17--15--
Bb|--------------15--17----------------------------------------------
F |------------------------------------------------------------------
Bb|------------------------------------------------------------------

Stave 12:

C |----------17----------------------17------------------------------
G |----------------------20----------------------20----------18------
Eb|--17--15------------------17--15------------------17--15------15--
Bb|--------------15--17------------------15--17----------------------
F |------------------------------------------------------------------
Bb|------------------------------------------------------------------

Stave 13:

C |----------17----------------------22--------------20--------------
G |----------------------18--------------20--------------18----------
Eb|--17--15------------------17--15----------19--17----------17--15--
Bb|--------------15--17----------------------------------------------
F |------------------------------------------------------------------
Bb|------------------------------------------------------------------

Stave 14:

C |--------------------------------------------------------------------------------------------------
G |--------------------------------------------------------------------------------------------------
Eb|--------------------------------------------------------------------------------------------------
Bb|--5--5--5--5--5--5--5--5--5--5--5--5--3--3--3--3--1--1--1--1--1--1--1--1--1--1--1--1--3--3--3--3--
F |--5--5--5--5--5--5--5--5--5--5--5--5--1--1--1--1--1--1--1--1--1--1--1--1--1--1--1--1--3--3--3--3--
Bb|--5--5--5--5--5--5--5--5--5--5--5--5--------------1--1--1--1--1--1--1--1--1--1--1--1--3--3--3--3--

Stave 15:

C |--------------0-----------------------0-----------------------0-----------------------0-----------
G |--------6--------6-----6--------6--------6-----6--------6--------6-----6--------6--------6-----6--
Eb|-----5-----5--------5--------5-----5--------5--------5-----5--------5--------5-----5--------5-----
Bb|--8-----------------------8-----------------------8-----------------------8-----------------------
F |--------------------------------------------------------------------------------------------------
Bb|--------------------------------------------------------------------------------------------------

Stave 16:

C |--------------------------------2--------------------------------------------------
G |--------------------------------2----------------------------------------------10--
Eb|--------------------------------2------------------------------------9-------------
Bb|--------------x--x-----x--x-----2-----0--0-----0--0-----------10--------10--8------
F |--------------x--x-----x--x-----2-----0--0-----0--0-----0--8------8----------------
Bb|--0--0--0-----x--x-----x--x-----------0--0-----0--0--------------------------------

Stave 17:

C |-----------------18--18--18--18--------------------------------------
G |-----------------22--22--22--22--------------------------------------
Eb|---------------------------------------------------------------------
Bb|---------------------------------0--0--0--0--0--0--0--0--0--0--0--0--
F |---------------------------------0--0--0--0--0--0--0--0--0--0--0--0--
Bb|-----0--0--0---------------------0--0--0--0--0--0--0--0--0--0--0--0--

http://www.guitartabcreator.com
Guitar Tab Creator is intended to store guitar tab created through the tool. It currently does not support in-line text editing. Any text you place in here will be lost. If you need to comment on your tab, please use the "Tab Notes" section located below.