Sound will begin in 5 seconds

AW Bass Tab

01234567891011121314151617181920212223
E
B
G
D
A
E
B
0 1 2 3 4 5 6 7 8 9 10 11 12 13 14 15 16 17 18 19 20 21 22 23
Song Science #1: How Pros Use 6 Chords to Write Hit Songs
(/) Slide Up  (\) Slide Down  (h) Hammer On  (p) Pull Off  (b) Bend (r) Release (v) Vibrato

Stave 1:

Gb|----------------------------------------------------------------------------------
Db|---------------------------------------------9--------------------------9--10-----
Ab|------------------------------------------------------------------7---------------
Eb|----------------------------------------------------------------------------------
Ab|--5--7--7--7--7--7--0--10--0-----0--0--0--------0--0-----0--0------------------0--

Stave 2:

Gb|-------------------------------------------------------------------------------------------------------
Db|---------------------------------------------9--10--9--0-----------------12--14--12--0--14--15--14--0--
Ab|----------------------------------------------------------10--12--10--0--------------------------------
Eb|-------------------------------------------------------------------------------------------------------
Ab|--5--7--7--7--7--7--0--10--0--0-----0--0---------------------------------------------------------------

Stave 3:

Gb|-----------------------------------------------------------------------------------------
Db|-----------------------------------------------------------------------------------------
Ab|-----------------------------------------------------------------------------------------
Eb|-----------------------------------------------------------------------------------------
Ab|--0-----0--0-----0--0-----0--0-----0--0--------0--0-----0--0-----0--0-----0--0-----0--0--

Stave 4:

Gb|-----------------------------------------------------------------------------
Db|-----------------------------------------------------------------------------
Ab|-----------------------------------------------------------------------------
Eb|-----------------------------------------------------------------------------
Ab|--0--0-----0-----0--0-----0--0-----0--0-----0--0-----0-----0--0--------0--0--

Stave 5:

Gb|------------------------------------------------------------------
Db|------------------------------------------------------------------
Ab|------------------------------------------------------------------
Eb|--5v--------------7v--------------8v--------------5v--------------
Ab|------------------------------------------------------------------

Stave 6:

Gb|-------------------------------------------------------------
Db|-------------------------------------------------------------
Ab|-------------------------------------------------------------
Eb|-------------------------------------------------------------
Ab|--12v-----0v-----12v-----15v-----12v-----0v-----12v-----15v--

Stave 7:

Gb|--------------------------------------------------------
Db|--------------------------------------------------------
Ab|--------------------------------------------------------
Eb|--------------------------------------------------------
Ab|--0-----0-----0--------5v-----7-----7-----7--------10v--

Stave 8:

Gb|--------------------------------
Db|--------------------------------
Ab|--------------------------------
Eb|--------------------------------
Ab|--0--------------0--------------

Stave 9:

Gb|-----------------------------------------------------------
Db|-----------------------------------------------------------
Ab|-----------------------------------------------------------
Eb|-----------------------------------------------------------
Ab|--0-----0--0--0-----0-----0-----0-----0-----0--0--0-----0--

Stave 10:

Gb|-------------------------------------------------
Db|-------------------------------------------------
Ab|-------------------------------------------------
Eb|-------------------------------------------------
Ab|--0-----0--0--0-----0-----0-----0-----0-----12v--

Stave 11:

Gb|-----------------------------------------------------------
Db|-----------------------------------------------------------
Ab|-----------------------------------------------------------
Eb|-----------------------------------------------------------
Ab|--0-----0--0--0-----0-----0-----0-----0-----0--0--0-----0--

Stave 12:

Gb|-------------------------------
Db|-------------------------------
Ab|-------------------------------
Eb|-------------------------------
Ab|--0-----0--0--0-----0-----12v--

http://www.guitartabcreator.com
Guitar Tab Creator is intended to store guitar tab created through the tool. It currently does not support in-line text editing. Any text you place in here will be lost. If you need to comment on your tab, please use the "Tab Notes" section located below.