Sound will begin in 5 seconds

Aurora (Bass Tab)

01234567891011121314151617181920212223
E
B
G
D
A
E
B
0 1 2 3 4 5 6 7 8 9 10 11 12 13 14 15 16 17 18 19 20 21 22 23
Song Science #1: How Pros Use 6 Chords to Write Hit Songs
(/) Slide Up  (\) Slide Down  (h) Hammer On  (p) Pull Off  (b) Bend (r) Release (v) Vibrato

Stave 1:

Eb|-----------------------------------------------------------------------------------------------
Bb|-----------------------------------------------------------------------------------------------
F |--------------------------3-----------------------------------3--------------------------------
Bb|--0--0-----0--0-----0--0--------0-----0--0-----0--0-----0--0--------0-----5--5--5--5--5--5--0--

Stave 2:

Eb|-----------------------------------------------------
Bb|-----------------------------------------------------
F |--------------------------3--------------------------
Bb|--------0--0-----0--0-----------0--0-----0--0-----0--

Stave 3:

Eb|------------------------------------------------------------------------------------------
Bb|------------------------------------------------------------------------------------------
F |--3--5---------------7--8--7--------------------------------------------------------------
Bb|-----------0-----10--------------0--0--10-----0--0--0--10--12-----0--3--7-----2--3--2--0--

Stave 4:

Eb|------------------------------------------------
Bb|------------------------------------------------
F |--3--5---------------7--8--7--------------------
Bb|-----------0-----10--------------0--0--0-----0--

Stave 5:

Eb|-----------------------------------------------------------------------------------------------------
Bb|-----------------------------------------------------------------------------------------------------
F |-----------------------------------------------------------------------------------------------------
Bb|--0--0-----0--0-----0--0-----0--0-----0--0-----0--0-----0--0-----0--0-----0--0--0--0-----0--0--0--0--

Stave 6:

Eb|-----------------------------------------------------------------------------------------------
Bb|-----------------------------------------------------------------------------------------------
F |--------------------------------------------------------------------------------------5-----3--
Bb|--0--0-----0--0-----0--0-----0--0-----0--0-----0--0-----0--0-----0--0-----4-----1--------------

Stave 7:

Eb|-----------------------------------------------------------------------------------------------------
Bb|-----------------------------------------------------------------------------------------------------
F |-----------------------------------------------------------------------------------------------------
Bb|--0--0-----0--0-----0--0-----0--0-----0--0-----0--0-----0--0-----0--0-----0--0--0--0-----0--0--0--0--

Stave 8:

Eb|-----------------------------------------------------------------------------------------------
Bb|--------------------------------------------------------------------------------------8-----7--
F |-----------------------------------------------------------------------------------------------
Bb|--0--0-----0--0-----0--0-----0--0-----0--0-----0--0-----0--0-----0--0-----8-----7--------------

Stave 9:

Eb|--------------------------------------------------------------------------------------------------
Bb|--------------------------------------------------------------------------------------------------
F |--------------------------------------------------------------------------------------------------
Bb|--1-----1-----1-----1--1-----1--1-----1-----1-----1-----3-----3-----3-----3--3--3--3--3--3--3--3--

Stave 10:

Eb|--------------------------------------------------------------------------------------------------
Bb|--------------------------------------------------------------------------------------------------
F |--------------------------------------------------------------------------------------------------
Bb|--5--5--5--5--5--5--5--5--5--5--5--5--8--8--8--8--1--1--1--1--1--1--1--1--3--3--3--3--3--3--3--3--

Stave 11:

Eb|--
Bb|--
F |--
Bb|--

http://www.guitartabcreator.com
Guitar Tab Creator is intended to store guitar tab created through the tool. It currently does not support in-line text editing. Any text you place in here will be lost. If you need to comment on your tab, please use the "Tab Notes" section located below.