Sound will begin in 5 seconds

Among Wolves

Chords
01234567891011121314151617181920212223
E
B
G
D
A
E
B
0 1 2 3 4 5 6 7 8 9 10 11 12 13 14 15 16 17 18 19 20 21 22 23
Song Science #1: How Pros Use 6 Chords to Write Hit Songs
(/) Slide Up  (\) Slide Down  (h) Hammer On  (p) Pull Off  (b) Bend (r) Release (v) Vibrato

Stave 1:

Eb|-------------------------------------------------------------------------------------
Bb|-------------------------------------------------------------------------------------
Gb|------------------------------------------5------------------------------------------
Db|------------------------------------------9--------------------------9-----9--10-----
Ab|---------------------------------------------------------------7--8-----8------------
Eb|-------------------------------------------------------------------------------------
Ab|--5--7--7--7--7--7--0--10--0-----0--0--0-----0--0-----0--0------------------------0--

Stave 2:

Eb|----------------------------------------------------------------------------------------------------
Bb|----------------------------------------------------------------------------------------------------
Gb|----------------------------------------------------------------------------------------------------
Db|------------------------------------------9--10--9--0-----------------12--14--12--0--14--15--14--0--
Ab|-------------------------------------------------------10--12--10--0--------------------------------
Eb|----------------------------------------------------------------------------------------------------
Ab|--5--7--7--7--7--7--0--10--0-----0--0--0------------------------------------------------------------

Stave 3:

Eb|-----------------------------------------------------------------------------------
Bb|---------10-----13-----12------------10-----13-----12------------10-----13-----12--
Gb|--12--------------------------12--------------------------12-----------------------
Db|-----------------------------------------------------------------------------------
Ab|-----------------------------------------------------------------------------------
Eb|-----------------------------------------------------------------------------------
Ab|-----------------------------------------------------------------------------------

Stave 4:

Eb|------------------------------------------------------------------
Bb|---------10-----13-----12------------10-----13-----12-------------
Gb|--12--------------------------12--------------------------12--14--
Db|------------------------------------------------------------------
Ab|------------------------------------------------------------------
Eb|------------------------------------------------------------------
Ab|------------------------------------------------------------------

Stave 5:

Eb|----------------------------------------------------------------------------------------------
Bb|----------------------------------------------------------------------------------------------
Gb|----------16----------17----------------------------------------------------------------------
Db|----------------------------------17----------19----------------------------------------------
Ab|------15----------15----------15----------15----------15--17------15--19------15------15------
Eb|----------------------------------------------------------------------------------19------20--
Ab|--12----------12----------12----------12----------12----------12----------12------------------

Stave 6:

Eb|-----------------------------------------
Bb|-----------------------------------------
Gb|--9-----------9-----------9-----------9--
Db|--7-----------7-----------7-----------7--
Ab|--8-----------8-----------8-----------0--
Eb|--5-----------7-----------8-----------8--
Ab|-----------------------------------------

Stave 7:

Eb|------------------------------------------------------------------------------------
Bb|------------------------------------------------------------------------------------
Gb|------------------------------------------------------------------------------------
Db|------------------------------------------------------------------------------------
Ab|-----------------14---------------------------------------------------15------------
Eb|---------13---------------------------------------------------13--------------------
Ab|--0--12------12------12--0--0-----0--0-----0--0-----0--0--12------12------12--0--0--

Stave 8:

Eb|---------------------------------
Bb|---------------------------------
Gb|---------------------------------
Db|---------------------------------
Ab|---------17----------15--14------
Eb|-------------15--17----------15--
Ab|--0--15--------------------------

Stave 9:

Eb|------------------------------------------15----------17--
Bb|--------------------------------------13----------13------
Gb|------------------12--14--17--16--12----------12----------
Db|--12--14--19--21------------------------------------------
Ab|----------------------------------------------------------
Eb|----------------------------------------------------------
Ab|----------------------------------------------------------

Stave 10:

Eb|------15--20------15--22------15----------15------------------------------
Bb|--13----------13----------13------20--13------22--13--12------------------
Gb|----------------------------------------------------------14--16----------
Db|------------------------------------------------------------------15--17--
Ab|--------------------------------------------------------------------------
Eb|--------------------------------------------------------------------------
Ab|--------------------------------------------------------------------------

Stave 11:

Eb|-----------------------------------------------------------
Bb|-----------------------------------------------------------
Gb|-----------------------------------------------------------
Db|-----------------------------------------------------------
Ab|--0-----0--0--0-----0-----0-----0-----0-----0--0--0-----0--
Eb|--0-----0--0--0-----0-----0-----0-----0-----0--0--0-----0--
Ab|--0-----0--0--0-----0-----0-----0-----0-----0--0--0-----0--

Stave 12:

Eb|----------------------------------------------------------------------------
Bb|----------------------------------------------------------------------------
Gb|----------------------------------------------------16----------17----------
Db|----------------------------------------------------------------------------
Ab|--0---------------------------------------------15----------15----------15--
Eb|--0-------------------------------------------------------------------------
Ab|--0-----0--0--0-----0-----0-----0-----0-----12----------12----------12------

Stave 13:

Eb|-----------------------------------------------------------
Bb|-----------------------------------------------------------
Gb|-----------------------------------------------------------
Db|-----------------------------------------------------------
Ab|--0-----0--0--0-----0-----0-----0-----0-----0--0--0-----0--
Eb|--0-----0--0--0-----0-----0-----0-----0-----0--0--0-----0--
Ab|--0-----0--0--0-----0-----0-----0-----0-----0--0--0-----0--

Stave 14:

Eb|-----------------------------------------------------------------------------------------
Bb|-----------------------------------------------------------------------------------------
Gb|----------------------------------16----------17-----------------------------------------
Db|----------------------------------------------------------17----------19-----------------
Ab|--0---------------------------15----------15----------15----------15----------15--17/19--
Eb|--0--------------------------------------------------------------------------------------
Ab|--0-----0--0--0-----0-----12----------12----------12----------12----------12-------------

http://www.guitartabcreator.com
Guitar Tab Creator is intended to store guitar tab created through the tool. It currently does not support in-line text editing. Any text you place in here will be lost. If you need to comment on your tab, please use the "Tab Notes" section located below.