Sound will begin in 5 seconds

valkyrie

Chords
01234567891011121314151617181920212223
E
B
G
D
A
E
B
0 1 2 3 4 5 6 7 8 9 10 11 12 13 14 15 16 17 18 19 20 21 22 23
(/) Slide Up  (\) Slide Down  (h) Hammer On  (p) Pull Off  (b) Bend (r) Release (v) Vibrato

Main Riff

E|------------------------------------------------------------------------------------------------------------------------------------------------------------------------------------------------
B|------------------------------------------------------------------------------------------------------------------------------------------------------------------------------------------------
G|------------------------------------------------------------------------------------------------------------------------------------------------------------------------------------------------
D|--0-----0-----0--0--0--0-----0-----0-----4--4--1--0--1--8-----8-----8--8--8--8-----8-----10--8--7--8--7--5-----5-----5--5--5--5-----5-----5--7--7--3-----3-----3--3--3--3-----3-----3--3--3-----
A|--0-----0-----0--0--0--0-----0-----0-----4--4--1--0--1--8-----8-----8--8--8--8-----8-----10--8--7--8--7--5-----5-----5--5--5--5-----5-----5--7--7--3-----3-----3--3--3--1-----1-----1--1--1-----
D|--0-----0-----0--0--0--0-----0-----0-----4--4--1--0--1--8-----8-----8--8--8--8-----8-----10--8--7--8--7--5-----5-----5--5--5--5-----5-----5--7--7--3-----3-----3--3--3--1-----1-----1--1--1-----

Chorus (1st=x4, 2nd&last=x8)

E|----------------------------------------------------------------------------------------
B|----------------------------------------------------------------------------------------
G|----------------------------------------------------------------------------------------
D|----------------------------7-----3-----8-------------------------------10-----1-----3--
A|--8-10-----8h10--8h10--8\6--7-----3-----8-----8-10-----8h10--8h10--8\6--10-----1-----1--
D|--0-------------------------7-----3-----8-----0-------------------------10-----1-----1--

bridge

E|--------------------------------------------------------
B|--------------------------------------------------------
G|--------------------------------------------------------
D|--0-----0--0--0--0-----8--8--3-----3--3--3--3-----5--5--
A|--0-----0--0--0--0-----8--8--3-----3--3--3--3-----5--5--
D|--0-----0--0--0--0-----8--8--3-----3--3--3--3-----5--5--

Verse Breakdown 1

E|--------------------------------------------------------------------------------------------------------------------------------------------------------------------------------------------------------------------------------------
B|--------------------------------------------------------------------------------------------------------------------------------------------------------------------------------------------------------------------------------------
G|--------------------------------------------------------------------------------------------------------------------------------------------------------------------------------------------------------------------------------------
D|-----------------------------------------------------------------------------------------------------------------------------------------------------------------------------------------------3-----3--3--3--3-----5--5--------------
A|-----------------------12--------------------------10-------------------------8------------------------7--------------------------12--------------------------10-------------------------8-----3-----3--3--3--3-----5--5--------------
D|--0-----0-----0h10h12------12--0-----0-----0h9h10------10--0-----0-----0h6h8-----8--0-----0-----0h5h7-----7--0-----0-----0h10h12------12--0-----0-----0h9h10------10--0-----0-----0h6h8-----8--3-----3--3--3--3-----5--5--------------

Verse Breakdown 2 (pinch harmonics on A string bends)

E|-------------------------------------------------------------------------------------
B|-------------------------------------------------------------------------------------
G|-------------------------------------------------------------------------------------
D|-------------------------------------------------------------------------------------
A|-----------------------12---------------------10b-------------------------12b--------
D|--0-----0-----0h10h12------12--8-----8--8--8-----8-----10-----10--10--10-----10v-----

http://www.guitartabcreator.com
Guitar Tab Creator is intended to store guitar tab created through the tool. It currently does not support in-line text editing. Any text you place in here will be lost. If you need to comment on your tab, please use the "Tab Notes" section located below.