Sound will begin in 5 seconds

chromatic blues

Chords
01234567891011121314151617181920212223
E
B
G
D
A
E
B
0 1 2 3 4 5 6 7 8 9 10 11 12 13 14 15 16 17 18 19 20 21 22 23
Song Science #1: How Pros Use 6 Chords to Write Hit Songs
(/) Slide Up  (\) Slide Down  (h) Hammer On  (p) Pull Off  (b) Bend (r) Release (v) Vibrato

Stave 1:

E|-------------------------------------|--------7v------------------------|--
B|-------------------------------------|--------7------------7------------|--
G|--------------7--9br9--7-------------|--------7---------7--9b----r------|--
D|---------7h9--------------9--7-----7h|--9v---------------------------9p7\|--
A|--7h8h9-------------------------9----|-----------------------------------|--
E|-------------------------------------|-----------------------------------|--

Stave 2:

E|-----------7-------------------------------------------|-------------7------------------
B|--------6-------6----------6-----6h7--6----------------|----------5-------5-------------
G|-----7-------------7----------7----------7--7/9--7--6--|-------6-------------6----------
D|--6-------------------6--------------------------------|--5---------------------5v------
A|-------------------------------------------------------|--------------------------------
E|-------------------------------------------------------|--------------------------------

Stave 3:

E|--7--6--7--7/9--7--6-----6-----|--------------6--9--9--6---------------------------|--
B|----------------------9-----7--|-----------7--------------7-----------7----5----3--|--
G|-------------------------------|--------6--------------------6--------6----4----2--|--
D|-------------------------------|-----8--------------------------8-----8----6----4--|--
A|-------------------------------|--9--------------------------------9--9----7----5--|--
E|-------------------------------|---------------------------------------------------|--

Stave 4:

E|--------------------------------
B|-----------3-----------------3--
G|--------4-----4-----------4-----
D|-----4-----------4-----4--------
A|--2-----------------2-----------
E|--------------------------------

http://www.guitartabcreator.com
Guitar Tab Creator is intended to store guitar tab created through the tool. It currently does not support in-line text editing. Any text you place in here will be lost. If you need to comment on your tab, please use the "Tab Notes" section located below.