Sound will begin in 5 seconds

Minds of the decayed

Chords
01234567891011121314151617181920212223
E
B
G
D
A
E
B
0 1 2 3 4 5 6 7 8 9 10 11 12 13 14 15 16 17 18 19 20 21 22 23
Song Science #1: How Pros Use 6 Chords to Write Hit Songs
(/) Slide Up  (\) Slide Down  (h) Hammer On  (p) Pull Off  (b) Bend (r) Release (v) Vibrato

Stave 1:

D|----------------------------------------------------------------------------------------17-------
A|-------------------------------------------------------------------------------------18----18----
G|---15p14---15---17-19---15p14---15---17-19---15p14---15---17-19---15p14---15---17-19----------19-
D|-0-------0----0-------0-------0----0-------0-------0----0-------0-------0----0-------------------
A|-------------------------------------------------------------------------------------------------
D|-------------------------------------------------------------------------------------------------

Stave 2:

D|----------------------------------------
A|----------------------------------------
G|-17-15----15\14----14\12----15-14-12----
D|-------17-------15-------13----------12-
A|----------------------------------------
D|----------------------------------------

Stave 3:

D|----------------------------------------------------------------------
A|----------------------------------------------------------------------
G|----15-14-12-14----17-15-14----15-14-12-14----15-14-12----15-14-12----
D|-12-------------12----------12-------------12----------13----------12-
A|----------------------------------------------------------------------
D|----------------------------------------------------------------------

Stave 4:

D|---------------------------------------------------------------------------
A|---------------------------------------------------------------------------
G|-14-12-------12------------------------------------------------------------
D|-------15-13----13-10-12-13-12----12-------------------------------------0-
A|-------------------------------15----15-13-12-10-12-10---------------------
D|-------------------------------------------------------12-10-13-12b0v------

Stave 5:

D|-----------------------------------------------------------
A|-8------10-----13\12-----------8----10-----13\12-----------
G|-10-----12-----15-14-----------10---12-----15-14-----------
D|----0-0----0-0-------0-0-0-0-0----0-0--0-0-------0-0-0-0-0-
A|-----------------------------------------------------------
D|-----------------------------------------------------------

Stave 6:

D|-------------------------------------------------------------------------------------------5-
A|-8----10---7---8----5---------8----7---10---8----12---10---13---12---15---14---17----5-------
G|-10---12---9---10---7---------10---9---12---10---14---12---15---14---17---16---19------5-7---
D|----0----0---0----0---0-0-0-0----0---0----0----0----0----0----0----0----0----0----0v---------
A|---------------------------------------------------------------------------------------------
D|---------------------------------------------------------------------------------------------

http://www.guitartabcreator.com
Guitar Tab Creator is intended to store guitar tab created through the tool. It currently does not support in-line text editing. Any text you place in here will be lost. If you need to comment on your tab, please use the "Tab Notes" section located below.