Sound will begin in 5 seconds

Snake Eyes by The Milk Carton Kids: Solo

Chords
01234567891011121314151617181920212223
E
B
G
D
A
E
B
0 1 2 3 4 5 6 7 8 9 10 11 12 13 14 15 16 17 18 19 20 21 22 23
Song Science #1: How Pros Use 6 Chords to Write Hit Songs
(/) Slide Up  (\) Slide Down  (h) Hammer On  (p) Pull Off  (b) Bend (r) Release (v) Vibrato

Capo Fret 3

Stave 1:

E|-----------------------------------------------------------------------------------
B|-----------------------------------------------------------------------------------
G|-----------------------------------------------------------------------------------
D|--2--4--5-----0--2-----4--5-----------------------------------------------0--2--5--
A|-----------------------------5-----2--0-----0--1/2--1/2-----------0--1/2-----------
E|-----------------------------------------3------------------0--3-------------------

Stave 2:

E|--------------------------------3--2--3--------8-----7--------7-----5--------------------------
B|--------------4--4-----1--1--0--3--2--3--------------------------------5-----5-----5-----------
G|--------5-----5--5-----2--2-----------------8-----7--------7-----7--------7-----6-----4--2--0--
D|--0--1-----------------------------------------------------------------------------------------
A|-----------------------------------------------------------------------------------------------
E|-----------------------------------------------------------------------------------------------

Stave 3:

E|-----------------------------
B|--------------------------7--
G|-----------0--2--4--5--7--8--
D|--0--2--4-----------------7--
A|-----------------------------
E|-----------------------------

http://www.guitartabcreator.com
Guitar Tab Creator is intended to store guitar tab created through the tool. It currently does not support in-line text editing. Any text you place in here will be lost. If you need to comment on your tab, please use the "Tab Notes" section located below.