Sound will begin in 5 seconds

Let's Do It (Let's Fall In Love)

Chords
01234567891011121314151617181920212223
E
B
G
D
A
E
B
0 1 2 3 4 5 6 7 8 9 10 11 12 13 14 15 16 17 18 19 20 21 22 23
Song Science #1: How Pros Use 6 Chords to Write Hit Songs
(/) Slide Up  (\) Slide Down  (h) Hammer On  (p) Pull Off  (b) Bend (r) Release (v) Vibrato

Stave 1:

E|------------------------------------------------------------------8--------------------------------------
B|----11------10--8---------8---------8--------8--------8--------8-------6--10-----------6--------6--------
G|----10------9---8------8---------8--------8--------8--------8----------7--9---------8-----8--------8-----
D|----8-------8---8--12--------10--------9--------8--------7-------------8--8------8-----------8--------8--
A|---------------------------------------------------------------------------------------------------------
E|--1/10--10--9---8----------------------------------------------------1/6--9---8--------------------------

Stave 2:

E|------------------------------------------------------------------------------------------------------------
B|--6-----------------6--8-----8--8--8--8--8--8---------------------10--8--8--8--8--------------------3-------
G|-----8-----------6-----------7--7--7--7--8--8-----8--------7------9---6--6--6--6--------7-----------4-------
D|--------------7--------------5--5--6--6--7--7-----7--------5----------8--8--8--8--------5-----------3-------
A|--------7--8-----------------5--5--6--6--------8-----0-----5----------6--6--7--7--0-----5-----------5--2/3--
E|-----------------------------6--6--7--7--8--8-----------6--6--10---------------------6--6--5--4--3----------

Stave 3:

E|-----------------------------------------------------------
B|--4--------1-----7--7-----------3-----------4-----------1--
G|--3--------2-----5--5-----------4-----------3-----------2--
D|--5--------1-----7--7-----------3-----------5-----------1--
A|--3--------3-----5--5-----------5--5--4--3--3-----------3--
E|-----0--1--------------5--4--3--3--------------3--2--1--1--

http://www.guitartabcreator.com
Guitar Tab Creator is intended to store guitar tab created through the tool. It currently does not support in-line text editing. Any text you place in here will be lost. If you need to comment on your tab, please use the "Tab Notes" section located below.