The Wasteland by Greg Bowers 8-4-2020

Chords

01234567891011121314151617181920212223
E
B
G
D
A
E
B
0 1 2 3 4 5 6 7 8 9 10 11 12 13 14 15 16 17 18 19 20 21 22 23
(/) Slide Up  (\) Slide Down  (h) Hammer On  (p) Pull Off  (b) Bend (r) Release (v) Vibrato

Stave 1:

D|---------------------------------------------------------------------------------------------
A|---------------------------------------------------------------------------------------------
F|-----------------7----------------------------------------------------7--------7-----9/11\9--
C|-----7-----7--9-----9--------7------7---------------------7-----7--9-----9--------9----------
G|--------------------------------10-----10--7-------------------------------------------------
D|--0-----0----------------------------------------------0-----0-------------------------------

Stave 2:

D|---------------------------------------------------------------------------------------------10--
A|-------------------------------------------------------------------------------------10--12------
F|-----------------7----------------------------------------------------7-----7--9/11--------------
C|-----7-----7--9-----9-----------7------7------------------7-----7--9-----9-----------------------
G|-----------------------------------10-----10--7--------------------------------------------------
D|--0-----0----------------------------------------------0-----0-----------------------------------

Stave 3:

D|-----------------------------------------------------------------
A|-----------------------------------------------------------------
F|-----------------------------------------------------------------
C|-----5-----7-----5-----7-----5--------5-----7-----5-----7-----5--
G|-----5-----7-----5-----7-----5--------5-----7-----5-----7-----5--
D|--0--3--0--5--0--3--0--5--0--3-----0--3--0--5--0--3--0--5--0--3--

Stave 4:

D|-----------------------------------------
A|-----------------------------------------
F|--9--9--9--9--9--------------------------
C|--9--9--9--9--9-----7--5--7--5--------2--
G|--7--7--7--7--7-----7--5--7--5--------2--
D|--0--0--0--0--0-----5--3--5--3--------0--

Stave 5:

D|--------------------------------------------------------------------------------------------------------------------
A|--------------------------------------------------------------------------------------------------------------------
F|--9-----9-----9--------------------------9-----9-----9-----------------------------9-----9-----9--------------------
C|--9-----9-----9--------------------------9-----9-----9-----------------------------9-----9-----9--------------------
G|--7-----7-----7-----------------5--------7-----7-----7--------------------5--------7-----7-----7-----------------5--
D|-----0-----0-----0--0--0--5--7--------------0-----0--------0--0--0--5--7--------------0-----0-----0--0--0--5--7-----

Stave 6:

D|------------------------------------------------
A|------------------------------------------------
F|--12--12--12--12-----7--7--7--7-----7--7--7--7--
C|--12--12--12--12-----7--7--7--7-----7--7--7--7--
G|--10--10--10--10-----5--5--5--5-----5--5--5--5--
D|------------------------------------------------

Stave 7:

D|-----------------------------------------------------------------------------------------------
A|-----------------------------------------------------------------------------------------------
F|--9--9--9--9--9--9--9--8--8--8--8--8--8--8--8--7--7--7--7--7--7--7--7--6--6--6--6--6--6--6--6--
C|--9--9--9--9--9--9--9--8--8--8--8--8--8--8--8--7--7--7--7--7--7--7--7--6--6--6--6--6--6--6--6--
G|--7--7--7--7--7--7--7--6--6--6--6--6--6--6--6--5--5--5--5--5--5--5--5--4--4--4--4--4--4--4--4--
D|-----------------------------------------------------------------------------------------------

Stave 8:

D|--------------------------------------------------------------------------------------------------
A|--------------------------------------------------------------------------------------------------
F|--7--7--7--7--7--7--7--7--6--6--6--6--6--6--6--6--7--7--7--7--7--7--7--7--6--6--6--6--6--6--6--6--
C|--7--7--7--7--7--7--7--7--6--6--6--6--6--6--6--6--7--7--7--7--7--7--7--7--6--6--6--6--6--6--6--6--
G|--5--5--5--5--5--5--5--5--4--4--4--4--4--4--4--4--5--5--5--5--5--5--5--5--4--4--4--4--4--4--4--4--
D|--------------------------------------------------------------------------------------------------

Stave 9:

D|-----------------------------------------------------------------------------
A|-----------------------------------------------------------------------------
F|--7--6--7--6--7--6--7--6--7--6--7--6--7--6--7--6--7--6--7--8--9--10--11--12--
C|--7--6--7--6--7--6--7--6--7--6--7--6--7--6--7--6--7--6--7--8--9--10--11--12--
G|--5--4--5--4--5--4--5--4--5--4--5--4--5--4--5--4--5--4--5--6--7--8---9---10--
D|-----------------------------------------------------------------------------

							http://www.guitartabcreator.com
genre
Instruments
{"strings":[[[".",".",".",".",".",".",".","_","_",".",".",".",".",".","_","_","_",".",".",".",".",".",".",".","_",".",".",".",".",".",".","."],[".",".",".",".",".",".",".","_","_",".",".",".",".",".","_","_","_",".",".",".",".",".",".",".","_",".",".",".",".",".",".","."],[".",".",".",".",".",7,".","_","_",".",".",".",".",".","_","_","_",".",".",".",".",".",7,".","_",7,".",9,"/",11,"\\",9],[".",7,".",7,9,".",9,"_","_",7,".",7,".",".","_","_","_",".",7,".",7,9,".",9,"_",".",9,".",".",".",".","."],[".",".",".",".",".",".",".","_","_",".",10,".",10,7,"_","_","_",".",".",".",".",".",".",".","_",".",".",".",".",".",".","."],[0,".",0,".",".",".",".","_","_",".",".",".",".",".","_","_","_",0,".",0,".",".",".",".","_",".",".",".",".",".",".","."]],[[".",".",".",".",".",".",".","_","_","_",".",".",".",".",".","_","_",".",".",".",".",".",".",".",".",".",".",".",".",".",10],[".",".",".",".",".",".",".","_","_","_",".",".",".",".",".","_","_",".",".",".",".",".",".",".",".",".",".",".",10,12,"."],[".",".",".",".",".",7,".","_","_","_",".",".",".",".",".","_","_",".",".",".",".",".",7,".",7,9,"/",11,".",".","."],[".",7,".",7,9,".",9,"_","_","_",7,".",7,".",".","_","_",".",7,".",7,9,".",9,".",".",".",".",".",".","."],[".",".",".",".",".",".",".","_","_","_",".",10,".",10,7,"_","_",".",".",".",".",".",".",".",".",".",".",".",".",".","."],[0,".",0,".",".",".",".","_","_","_",".",".",".",".",".","_","_",0,".",0,".",".",".",".",".",".",".",".",".",".","."]],[[".",".",".",".",".",".",".",".",".",".","_",".",".",".",".",".",".",".",".",".","."],[".",".",".",".",".",".",".",".",".",".","_",".",".",".",".",".",".",".",".",".","."],[".",".",".",".",".",".",".",".",".",".","_",".",".",".",".",".",".",".",".",".","."],[".",5,".",7,".",5,".",7,".",5,"_",".",5,".",7,".",5,".",7,".",5],[".",5,".",7,".",5,".",7,".",5,"_",".",5,".",7,".",5,".",7,".",5],[0,3,0,5,0,3,0,5,0,3,"_",0,3,0,5,0,3,0,5,0,3]],[[".",".",".",".",".","_",".",".",".",".","_","_","."],[".",".",".",".",".","_",".",".",".",".","_","_","."],[9,9,9,9,9,"_",".",".",".",".","_","_","."],[9,9,9,9,9,"_",7,5,7,5,"_","_",2],[7,7,7,7,7,"_",7,5,7,5,"_","_",2],[0,0,0,0,0,"_",5,3,5,3,"_","_",0]],[[".",".",".",".",".",".",".",".",".",".",".","_","_",".",".",".",".",".","_",".",".",".",".",".",".","_","_",".",".",".",".",".",".",".",".",".",".","."],[".",".",".",".",".",".",".",".",".",".",".","_","_",".",".",".",".",".","_",".",".",".",".",".",".","_","_",".",".",".",".",".",".",".",".",".",".","."],[9,".",9,".",9,".",".",".",".",".",".","_","_",9,".",9,".",9,"_",".",".",".",".",".",".","_","_",9,".",9,".",9,".",".",".",".",".","."],[9,".",9,".",9,".",".",".",".",".",".","_","_",9,".",9,".",9,"_",".",".",".",".",".",".","_","_",9,".",9,".",9,".",".",".",".",".","."],[7,".",7,".",7,".",".",".",".",".",5,"_","_",7,".",7,".",7,"_",".",".",".",".",".",5,"_","_",7,".",7,".",7,".",".",".",".",".",5],[".",0,".",0,".",0,0,0,5,7,".","_","_",".",0,".",0,".","_",0,0,0,5,7,".","_","_",".",0,".",0,".",0,0,0,5,7,"."]],[[".",".",".",".","_",".",".",".",".","_",".",".",".","."],[".",".",".",".","_",".",".",".",".","_",".",".",".","."],[12,12,12,12,"_",7,7,7,7,"_",7,7,7,7],[12,12,12,12,"_",7,7,7,7,"_",7,7,7,7],[10,10,10,10,"_",5,5,5,5,"_",5,5,5,5],[".",".",".",".","_",".",".",".",".","_",".",".",".","."]],[[".",".",".",".",".",".",".",".",".",".",".",".",".",".",".",".",".",".",".",".",".",".",".",".",".",".",".",".",".",".","."],[".",".",".",".",".",".",".",".",".",".",".",".",".",".",".",".",".",".",".",".",".",".",".",".",".",".",".",".",".",".","."],[9,9,9,9,9,9,9,8,8,8,8,8,8,8,8,7,7,7,7,7,7,7,7,6,6,6,6,6,6,6,6],[9,9,9,9,9,9,9,8,8,8,8,8,8,8,8,7,7,7,7,7,7,7,7,6,6,6,6,6,6,6,6],[7,7,7,7,7,7,7,6,6,6,6,6,6,6,6,5,5,5,5,5,5,5,5,4,4,4,4,4,4,4,4],[".",".",".",".",".",".",".",".",".",".",".",".",".",".",".",".",".",".",".",".",".",".",".",".",".",".",".",".",".",".","."]],[[".",".",".",".",".",".",".",".",".",".",".",".",".",".",".",".",".",".",".",".",".",".",".",".",".",".",".",".",".",".",".","."],[".",".",".",".",".",".",".",".",".",".",".",".",".",".",".",".",".",".",".",".",".",".",".",".",".",".",".",".",".",".",".","."],[7,7,7,7,7,7,7,7,6,6,6,6,6,6,6,6,7,7,7,7,7,7,7,7,6,6,6,6,6,6,6,6],[7,7,7,7,7,7,7,7,6,6,6,6,6,6,6,6,7,7,7,7,7,7,7,7,6,6,6,6,6,6,6,6],[5,5,5,5,5,5,5,5,4,4,4,4,4,4,4,4,5,5,5,5,5,5,5,5,4,4,4,4,4,4,4,4],[".",".",".",".",".",".",".",".",".",".",".",".",".",".",".",".",".",".",".",".",".",".",".",".",".",".",".",".",".",".",".","."]],[[".",".",".",".",".",".",".",".",".",".",".",".",".",".",".",".",".",".",".",".",".",".",".","."],[".",".",".",".",".",".",".",".",".",".",".",".",".",".",".",".",".",".",".",".",".",".",".","."],[7,6,7,6,7,6,7,6,7,6,7,6,7,6,7,6,7,6,7,8,9,10,11,12],[7,6,7,6,7,6,7,6,7,6,7,6,7,6,7,6,7,6,7,8,9,10,11,12],[5,4,5,4,5,4,5,4,5,4,5,4,5,4,5,4,5,4,5,6,7,8,9,10],[".",".",".",".",".",".",".",".",".",".",".",".",".",".",".",".",".",".",".",".",".",".",".","."]]],"numberofstrings":6,"notes":["D","A","F","C","G","D"],"capo":0,"stringnotes":["D3","A2","F2","C2","G1","D1"],"comments":["Stave 1:","Stave 2:","Stave 3:","Stave 4:","Stave 5:","Stave 6:","Stave 7:","Stave 8:","Stave 9:"],"timing":[[null,null,null,null,null,null,null,null,null,null,null,null,null,null,null,null,null,null,null,null,null,null,null,null,null,null,null,null,null,null,null,null],[null,null,null,null,null,null,null,null,null,null,null,null,null,null,null,null,null,null,null,null,null,null,null,null,null,null,null,null,null,null,null],[null,null,null,null,null,null,null,null,null,null,null,null,null,null,null,null,null,null,null,null,null],[null,null,null,null,null,null,null,null,null,null,null,null,null],[null,null,null,null,null,null,null,null,null,null,"W",null,null,"W","W","W","W","W",null,"W","W","W","W","W","W",null,null,"W","W","W","W","W","W","W","W","W","W","W","W","W","W","W","W","W","W","W","W","W","W",null,"W"],["W","W","W","W",null,"W","W","W","W",null,"W","W","W","W"],["W","W","W","W","S","S","S","S","S","S","S","S","S","S","S","S","S","S","S","S","S","S","S","S","S","S","S","S","S","S","S"],["S","S","S","S","S","S","S","S","S","S","S","S","S","S","S","S","S","S","S","S","S","S","S","S","S","S","S","S","S","S","S","S"],["S","S","S","S","S","S","S","S","S","S","S","S","S","S","S","S","S","S","S","S","S","S","S","S"]],"timingvisible":false,"tabcounter":23,"stave":8,"totalstaves":9,"instrument":"6guitar","selectedtuning":"Full Step Down","version":"13"}

Member for

4 months
Submitted by wgbowers on Mon, 2020-08-03 15:43