Too Long

Chords

01234567891011121314151617181920212223
E
B
G
D
A
E
B
0 1 2 3 4 5 6 7 8 9 10 11 12 13 14 15 16 17 18 19 20 21 22 23
(/) Slide Up  (\) Slide Down  (h) Hammer On  (p) Pull Off  (b) Bend (r) Release (v) Vibrato

Stave 1:

E|---------------------------------------------------------------
B|---------------------------------------------------------------
G|--------------------------------------------------------11p12--
D|--11--11--11--11--11--11-------------9--11--11--11--11---------
A|--11--11--11--11--11--11--11--9--11-----11--11--11--11---------
E|--9---9---9---9---9---9-----------------9---9---9---9----------

Stave 2:

E|-------------------------------------------------------------------
B|-------------------------------------------------------------------
G|-------------------------------------------------------------------
D|--11--11--11--11--11--11-------------9--11--11--11--11-------------
A|--11--11--11--11--11--11--11--9--11-----11--11--11--11--9/11/9--7--
E|--9---9---9---9---9---9-----------------9---9---9---9--------------

Stave 3:

E|------------------------------------------
B|------------------------------------------
G|--9--9--9--9------------------------------
D|--9--9--9--9--9--9--9--9--11--11--11--11--
A|--7--7--7--7--9--9--9--9--11--11--11--11--
E|--------------7--7--7--7--9---9---9---9---

							http://www.guitartabcreator.com
genre
Instruments
{"title":"Too Long","strings":[[[".",".",".",".",".",".",".",".",".",".",".",".",".",".",".",".","."],[".",".",".",".",".",".",".",".",".",".",".",".",".",".",".",".","."],[".",".",".",".",".",".",".",".",".",".",".",".",".",".",11,"p",12],[11,11,11,11,11,11,".",".",".",9,11,11,11,11,".",".","."],[11,11,11,11,11,11,11,9,11,".",11,11,11,11,".",".","."],[9,9,9,9,9,9,".",".",".",".",9,9,9,9,".",".","."]],[[".",".",".",".",".",".",".",".",".",".",".",".",".",".",".",".",".",".",".","."],[".",".",".",".",".",".",".",".",".",".",".",".",".",".",".",".",".",".",".","."],[".",".",".",".",".",".",".",".",".",".",".",".",".",".",".",".",".",".",".","."],[11,11,11,11,11,11,".",".",".",9,11,11,11,11,".",".",".",".",".","."],[11,11,11,11,11,11,11,9,11,".",11,11,11,11,9,"/",11,"/",9,7],[9,9,9,9,9,9,".",".",".",".",9,9,9,9,".",".",".",".",".","."]],[[".",".",".",".",".",".",".",".",".",".",".","."],[".",".",".",".",".",".",".",".",".",".",".","."],[9,9,9,9,".",".",".",".",".",".",".","."],[9,9,9,9,9,9,9,9,11,11,11,11],[7,7,7,7,9,9,9,9,11,11,11,11],[".",".",".",".",7,7,7,7,9,9,9,9]]],"numberofstrings":6,"notes":["E","B","G","D","A","E","B"],"capo":0,"stringnotes":["E4","B3","G3","D3","A2","E2"],"comments":["Stave 1:","Stave 2:","Stave 3:"],"timing":[["W","W","W","W","W","W","W","W","W","W","W","W","W","W","W","W","W","W","W","W"],["W","W","W","W","W","W","W","W","W","W","W","W","W","W","W",null,"W",null,"W","W","W"],["W","W","W","W","W","W","W","W","W","W","W","W"]],"timingvisible":false,"tabcounter":11,"stave":2,"totalstaves":3,"instrument":"6guitar","selectedtuning":"6_standard","version":"13"}

Member for

8 months 2 weeks
Submitted by wfparra on Thu, 2019-10-24 09:46