Sound will begin in 5 seconds

Melodic Hardcore 1

Chords
01234567891011121314151617181920212223
E
B
G
D
A
E
B
0 1 2 3 4 5 6 7 8 9 10 11 12 13 14 15 16 17 18 19 20 21 22 23
Song Science #1: How Pros Use 6 Chords to Write Hit Songs
(/) Slide Up  (\) Slide Down  (h) Hammer On  (p) Pull Off  (b) Bend (r) Release (v) Vibrato

Stave 1:

E|---------------------------------------------------------------------------------
B|---------------------------------------------------------------------------------
G|---------------------------------------------------------------------------------
D|-----7-10-10-10-9-9-9-9-9-9-8-8-8-8-8-8-----7------------------------------------
A|-2/6-5-8--8--8--7-7-7-7-7-7-6-6-6-6-6-6-2-6-5-6-10-10-10-8-8-8-8-8-8-7-7-7-7-7-7-
D|-2-6------------------------------------2/6---6-10-10-10-8-8-8-8-8-8-7-7-7-7-7-7-

Stave 2:

E|---------------------------------------------------
B|---------------------------------------------------
G|---------------------------------------------------
D|---------------------------------------------------
A|-----------------4---2-4/5p0-----------------4---3-
D|-2-2-2-2-2/6-6-6---5---------2-2-2-2-2/6-6-6---5---

http://www.guitartabcreator.com
Guitar Tab Creator is intended to store guitar tab created through the tool. It currently does not support in-line text editing. Any text you place in here will be lost. If you need to comment on your tab, please use the "Tab Notes" section located below.