Sound will begin in 5 seconds

Fastcore

Chords
01234567891011121314151617181920212223
E
B
G
D
A
E
B
0 1 2 3 4 5 6 7 8 9 10 11 12 13 14 15 16 17 18 19 20 21 22 23
Song Science #1: How Pros Use 6 Chords to Write Hit Songs
(/) Slide Up  (\) Slide Down  (h) Hammer On  (p) Pull Off  (b) Bend (r) Release (v) Vibrato

Stave 1:

E|-------5-
B|-------5-
G|-------7-
D|-2-6-6-7-
A|-1-5-5-5-
D|-1/5-5-5-

Stave 2:

E|-------------
B|-------------
G|-------------
D|-6-5-4-3-2-1-
A|-5-4-3-2-1-0-
D|-0-----------

Stave 3:

E|--------------------------------------------------
B|--------------------------------------------------
G|--------------------------------------------------
D|-2---------2--------------------------------------
A|-1----1----1----1---------------------------------
D|-1----1----1----1-4-3-1-0-5-4-2-0-4-3-1-0-5-4-2-0-

http://www.guitartabcreator.com
Guitar Tab Creator is intended to store guitar tab created through the tool. It currently does not support in-line text editing. Any text you place in here will be lost. If you need to comment on your tab, please use the "Tab Notes" section located below.