Sound will begin in 5 seconds

Smoke Shall Rise

01234567891011121314151617181920212223
E
B
G
D
A
E
B
0 1 2 3 4 5 6 7 8 9 10 11 12 13 14 15 16 17 18 19 20 21 22 23
Song Science #1: How Pros Use 6 Chords to Write Hit Songs
(/) Slide Up  (\) Slide Down  (h) Hammer On  (p) Pull Off  (b) Bend (r) Release (v) Vibrato

Stave 1:

G|---------------------------------------------
D|---------------------------------------------
A|---------------------------------------------
E|-12-0-7-10-7-12-------12-0-7-10-7-12-0-7-6-3-

Stave 2:

G|------------------------------------------------------------
D|------------------------------------------------------------
A|------------------------------------------------------------
E|-12-0-7-10-7-12-------12-0-7-10-7-0-7-6-3-15-14-12h13p12-10-

Stave 3:

G|-----------------------
D|-----------------------
A|-----------------------
E|-12-0-7-10-0-6-6-6-3-0-

Stave 4:

G|-------------------|----------------|------------------------
D|-------------------|----------------|------------------------
A|-------------------|----------------|------------------------
E|-7-6-3-10-10-10-11-|-12-0-7-10-7-12-|-12-0-7-10-7-12-0-7-6-3-

Stave 5:

G|-------------------|------------------------------------------
D|-------------------|------------------------------------------
A|-------------------|------------------------------------------
E|-12-0-7-10-7-10-12-|-12-0-7-10-7-12-0-7-6-3-15-14-12h14p12-10-

Stave 6:

G|-------------------|-------------------
D|-------------------|-------------------
A|-------------------|-------------------
E|-12-0-7-10-10-7-10-|-12-0-7-10-10-7-10-

Stave 7:

G|------------------|------------------|-------------------
D|------------------|------------------|-------------------
A|------------------|------------------|-------------------
E|-12-0-7-6-6-10-10-|-12-0-7-6-6-10-10-|-10h12-12-12-12-12-

http://www.guitartabcreator.com
Guitar Tab Creator is intended to store guitar tab created through the tool. It currently does not support in-line text editing. Any text you place in here will be lost. If you need to comment on your tab, please use the "Tab Notes" section located below.