Sound will begin in 5 seconds

10k Yrs

01234567891011121314151617181920212223
E
B
G
D
A
E
B
0 1 2 3 4 5 6 7 8 9 10 11 12 13 14 15 16 17 18 19 20 21 22 23
Song Science #1: How Pros Use 6 Chords to Write Hit Songs
(/) Slide Up  (\) Slide Down  (h) Hammer On  (p) Pull Off  (b) Bend (r) Release (v) Vibrato

Stave 1:

G|--------------------|------------------------------|--------------------------------|------------------
D|--------------------|------------------------------|--------------------------------|------------------
A|--------------------|------------------------------|--------------------------------|------------------
E|--5--5--8--8--5--5--|--11--11--10--10--8--8--5--5--|--13--13--11--11--10--10--8--8--|--11--11--10--10--

Stave 2:

G|--------------
D|--------------
A|--------------
E|--8--8--3--3--

Stave 3:

G|--------------------------------------------------------------
D|--------------------------------------------------------------
A|--------------------------------------4--3-----3--4--1--3-----
E|--5--5--3--5--0--5--3--5--0--5--8--5-----------------------3--

Stave 4:

G|--------------------------------------------
D|--------------------------------------------
A|--------------------------------------4--3--
E|--5--5--3--5--0--5--3--5--0--5--8--5--------

Stave 5:

G|-----------------------------------------------------------------------------
D|--5--5--5--5--3--5--5--5--5-----------5--5--3--5--5--3--5--5--5--5-----------
A|-----------------------------3--5--3--------------------------------3--5--3--
E|-----------------------------------------------------------------------------

Stave 6:

G|--------------3-----3-----------------|-----------------------------------------------------
D|--3--5--5--5-----5-----5--5-----------|--5--5--3-----3--------------------------------------
A|-----------------------------3--5--3--|-----------5-----5--4--3--1--3--3--1--4--3--1--------
E|--------------------------------------|-----------------------------------------------3--5--

Stave 7:

G|--------------------------------------------------5-----5-----5-----5--------5--
D|--5--5--5--3--5--5--3--5--5--5--5-----------3--5-----5-----5-----5-----5--5-----
A|-----------------------------------3--5--3--------------------------------------
E|--------------------------------------------------------------------------------

Stave 8:

G|--------------------------------------------|-----------------------------------------------------
D|--5--5--5--3--5--5--3--5--5--5--5-----------|--5--5--3-----3--------------------------------------
A|-----------------------------------3--5--3--|-----------5-----5--4--3--1--3--3--1--4--3--1--------
E|--------------------------------------------|-----------------------------------------------3--5--

Stave 9:

G|--------------------------------------------------5-----5-----5-----5-----5--
D|--5--5--5--3--5--5--3--5--5--5--5-----------3--5-----5-----5-----5-----5-----
A|-----------------------------------3--5--3-----------------------------------
E|-----------------------------------------------------------------------------

Stave 10:

G|-----3-----3-----------3--------|-----------------------------------------------------
D|--5-----5-----3--5--5-----3--5--|--5--5--3-----3--------------------------------------
A|--------------------------------|-----------5-----5--4--3--1--3--3--1--4--3--1--------
E|--------------------------------|-----------------------------------------------3--5--

Stave 11:

G|--------------------------------------------------5-----5-----3-----3-----3--
D|--5--5--5--5--5--3--5--5--5--5--5--5--5--5--3--5-----5-----5-----5-----5-----
A|-----------------------------------------------------------------------------
E|-----------------------------------------------------------------------------

http://www.guitartabcreator.com
Guitar Tab Creator is intended to store guitar tab created through the tool. It currently does not support in-line text editing. Any text you place in here will be lost. If you need to comment on your tab, please use the "Tab Notes" section located below.