You, You Are God

Chords

01234567891011121314151617181920212223
E
B
G
D
A
E
B
0 1 2 3 4 5 6 7 8 9 10 11 12 13 14 15 16 17 18 19 20 21 22 23
(/) Slide Up  (\) Slide Down  (h) Hammer On  (p) Pull Off  (b) Bend (r) Release (v) Vibrato

Stave 1:

E|--8--10--12--8--7--8--
B|----------------------
G|--5--7---9---5--5--5--
D|----------------------
A|----------------------
E|----------------------

Stave 2:

E|--8--10--8--13--15--17--19--21--22--
B|------------------------------------
G|--5--7---5--10--12--14--16--18--19--
D|------------------------------------
A|------------------------------------
E|------------------------------------

Stave 3:

E|--10--12--14--10--9--10--
B|-------------------------
G|--7---9---11--7---7--7---
D|-------------------------
A|-------------------------
E|-------------------------

							http://www.guitartabcreator.com
Instruments
{"title":"You, You Are God","strings":[[[8,10,12,8,7,8],[".",".",".",".",".","."],[5,7,9,5,5,5],[".",".",".",".",".","."],[".",".",".",".",".","."],[".",".",".",".",".","."]],[[8,10,8,13,15,17,19,21,22],[".",".",".",".",".",".",".",".","."],[5,7,5,10,12,14,16,18,19],[".",".",".",".",".",".",".",".","."],[".",".",".",".",".",".",".",".","."],[".",".",".",".",".",".",".",".","."]],[[10,12,14,10,9,10],[".",".",".",".",".","."],[7,9,11,7,7,7],[".",".",".",".",".","."],[".",".",".",".",".","."],[".",".",".",".",".","."]]],"numberofstrings":6,"notes":["E","B","G","D","A","E","B"],"capo":0,"stringnotes":["E4","B3","G3","D3","A2","E2"],"comments":["Stave 1:","Stave 2:","Stave 3:"],"timing":[["W","W","W","W","W","W"],["W","W","W","W","W","W","W","W","W"],["W","W","W","W","W","W"]],"timingvisible":false,"tabcounter":5,"stave":2,"totalstaves":3,"instrument":"6guitar","selectedtuning":"6_standard","version":"13"}

Member for

2 years 9 months
Submitted by Wells306 on Sat, 2018-03-03 15:48