Victory in Jesus

Chords

01234567891011121314151617181920212223
E
B
G
D
A
E
B
0 1 2 3 4 5 6 7 8 9 10 11 12 13 14 15 16 17 18 19 20 21 22 23
(/) Slide Up  (\) Slide Down  (h) Hammer On  (p) Pull Off  (b) Bend (r) Release (v) Vibrato

Stave 1:

E|--------------------------------------------------|--------------------------------------------3--
B|--------------------------------------------------|-----------------------------------------------
G|--------------------------------------4--5--------|--------------------------------------4--5-----
D|--5--5--5--5--5--5--5--5--5--5--5--5--------7--5--|--5--5--5--5--5--5--5--5--5--5--5--5-----------
A|--------------------------------------------------|-----------------------------------------------
E|--------------------------------------------------|-----------------------------------------------

Stave 2:

E|-----------------|-----------------|-----------------|----------------------------|--
B|-----------------|-----------------|-----------------|-----6----------------------|--
G|-----------3-----|-----------5--3--|-----------7--5--|--5-----7--5--7--5\3--------|--
D|--5--3--5-----5--|--5--3--5--------|--5--3--5--------|----------------------5--3--|--
A|-----------------|-----------------|-----------------|----------------------------|--
E|-----------------|-----------------|-----------------|----------------------------|--

							http://www.guitartabcreator.com
Instruments
{"title":"","strings":[[[".",".",".",".",".",".",".",".",".",".",".",".",".",".",".",".","|",".",".",".",".",".",".",".",".",".",".",".",".",".",".",3],[".",".",".",".",".",".",".",".",".",".",".",".",".",".",".",".","|",".",".",".",".",".",".",".",".",".",".",".",".",".",".","."],[".",".",".",".",".",".",".",".",".",".",".",".",4,5,".",".","|",".",".",".",".",".",".",".",".",".",".",".",".",4,5,"."],[5,5,5,5,5,5,5,5,5,5,5,5,".",".",7,5,"|",5,5,5,5,5,5,5,5,5,5,5,5,".",".","."],[".",".",".",".",".",".",".",".",".",".",".",".",".",".",".",".","|",".",".",".",".",".",".",".",".",".",".",".",".",".",".","."],[".",".",".",".",".",".",".",".",".",".",".",".",".",".",".",".","|",".",".",".",".",".",".",".",".",".",".",".",".",".",".","."]],[[".",".",".",".",".","|",".",".",".",".",".","|",".",".",".",".",".","|",".",".",".",".",".",".",".",".",".",".","|"],[".",".",".",".",".","|",".",".",".",".",".","|",".",".",".",".",".","|",".",6,".",".",".",".",".",".",".",".","|"],[".",".",".",3,".","|",".",".",".",5,3,"|",".",".",".",7,5,"|",5,".",7,5,7,5,"\\",3,".",".","|"],[5,3,5,".",5,"|",5,3,5,".",".","|",5,3,5,".",".","|",".",".",".",".",".",".",".",".",5,3,"|"],[".",".",".",".",".","|",".",".",".",".",".","|",".",".",".",".",".","|",".",".",".",".",".",".",".",".",".",".","|"],[".",".",".",".",".","|",".",".",".",".",".","|",".",".",".",".",".","|",".",".",".",".",".",".",".",".",".",".","|"]]],"numberofstrings":6,"notes":["E","B","G","D","A","E","B"],"capo":0,"stringnotes":["E4","B3","G3","D3","A2","E2"],"comments":["Stave 1:","Stave 2:"],"timing":[["W","W","W","W","W","W","W","W","W","W","W","W","W","W","W","W","W","W","W","W","W","W","W","W","W","W","W","W","W","W","W","W"],["W","W","W","W","W",null,"W","W","W","W","W",null,"W","W","W","W","W",null,"W","W","W","W","W","W",null,"W","W","W"]],"timingvisible":false,"tabcounter":29,"stave":1,"totalstaves":2,"instrument":"6guitar","selectedtuning":"6_standard","version":"13"}

Member for

2 years 8 months
Submitted by Wells306 on Tue, 2018-01-09 21:27